Song name
# A B C D E F G H I J K L M N O P Q R S T U V W X Y Z

Shades Apart - Sputnik tab

Band: Shades Apart
Song: Sputnik (Watching Over You)
Album: Eyewitness

Normal Tuning (E A D G B E)

/ means slide to that/those frets.

Intro/Chours

E------------10---------11------10--11-----------10--11-------------10--11-------|
B------11---------11--------11-----------8--11------------------11---------------|
G--8---------------------------------------------------------10------------------|
D--------------------------------------------------------------------------------|
A--------------------------------------------------------------------------------|
E--------------------------------------------------------------------------------|

Verses play twice. (All power chords)

Eb5	G5	F5	Eb5
| |	| |	| |	| |

After playing the Eb5 power chord play this riff.

E--------------------------------|
B--------------------------------|
G--------------------------------|
D---------0--1-----------0--1----|
A-----1--------------1-----------|
E--3--------------1--------------|

Prechours play four times. You can play either bar
chords or power chords. I prefer power so I'll write
this tab with those casue I'm too lazy to tab out bar
chords.

C5	G5	Bb5
| | | |	| | | |	| | | |

Solo

Play this first part two times.

E------------------------------------------------|
B------------------------------------------------|
G--8----10---12---13--13--/---12--10--12---------|
D--x-----x----x-----x---x---/---x----x----x------|
A--6-----8---10----11--11--/--10---8---10--------|
E------------------------------------------------|

Play this after you have played the first part of the
solo twice.

E----------------13--11----------|
B--------------------------11----|
G--13---12-----------------------|
D---x---x------------------------|
A--11--10------------------------|
E--------------------------------|
Tap to rate this tab
 
# A B C D E F G H I J K L M N O P Q R S T U V W X Y Z