Song name
# A B C D E F G H I J K L M N O P Q R S T U V W X Y Z

Shadow Of The Colossus - Wanderer On The Offensive tab

e:------------------------------------------------------|
b:------------------------------------------------------|
G:----------------------------------7-7-7--6---6--4-4-4-|
D:----------------------------------5-5-5--4---4--2-2-2-|
A:---4-4--4--4--4-4-4--4--4--4-4-4----------------------|
E:---2-2--2--2--2-2-2--2--2--2-2-2-X--------------------|

e:-----------------------------------------------------|
b:-----------------------------------------------------|
G:-----------------------------------------------------|
D:-----------------------------------------------------|
A:---4--4-4--2--7-6--0/7--6-6--4-4--2--2---------------|
E:---2--2-2--0--5-4--2/5--4-4--2-2--0--0---------------|

The Rhytm isint 100% correct but listen the song so you will learn how this is meant to 
played. you can freely use this to make your own version.
Tap to rate this tab
 
# A B C D E F G H I J K L M N O P Q R S T U V W X Y Z