Song name
# A B C D E F G H I J K L M N O P Q R S T U V W X Y Z

Shadow - New Years Evil tab

-------------------------------------------------------------------------------
                             NEW YEAR'S EVIL - Shadow
-------------------------------------------------------------------------------
Tabbed by: Seismatters

Tuning: D# A D G B E


Main Riff
e|---------------------------------------------------------------------------|
B|---------------------------------------------------------------------------|
G|---------------------------------------------------------------------------|
D|---------------------------------------------------------------------------|
A|---6-6-4-6--1--6-6-4-6----6-6-4-6--9--6-4-6--------------------------------|
E|-0----------------------5--------------------------------------------------|


Chorus (e.g. Shall we dance, to the music...)
e|---------------------------------------------------------------------------|
B|---------------------------------------------------------------------------|
G|---------------------------------------------------------------------------|
D|---------------------------------------------------------------------------|
A|-4---------------------4---------------------------------------------------|
E|-----5---8-8-7-7-3-5-------5---8-8-3-3--7--5-3-5---3--2-0------------------|

Here's the actual song, just to prove its existence: http://www.youtube.com/watch?v=Jx9biPN6uRE
Tap to rate this tab
# A B C D E F G H I J K L M N O P Q R S T U V W X Y Z