Song name
# A B C D E F G H I J K L M N O P Q R S T U V W X Y Z

Shadows Fall - Venomous tab

-------------------------------------------------------------------------------
			   "Venomous" ----- Shadows Fall
-------------------------------------------------------------------------------

Tabbed by: [travis]


Tuning: Drop D --- D A D G B E (low to high)

Key: F Major (F G A Bb C D E F)

Legend:
... = palm muted
h = hammer on
b = bend
p = pull off
__ = hold bend
() = note barely heard, or bring bent note back to normal
\ = slide down
/ = slide up
~ = vibrato
* = harmonic
h/ = one pick
h/p\ = one pick
1 = full step bend
.5 = half step bend
.25 = quarter step bend
1.5 = full step and a half bend


Guitars 1 and 2: Play this twice.
e|--------------------------------------------------------------------------------------|
B|--------------------------------------------------------------------------------------|
G|--------------------------------3--3h/5--5--------------------------------------------|
D|-0-0-----3h/5--5--6--0----1--1--3--3h/5--5--0--0--0-----3h/5--5-6-0--0--3-3-5-5-1-1-3-|
A|-0-0-----3h/5--5--6--0----1--1--1--1h/3--3--0--0--0-----3h/5--5-6-0--0--5-5-6-6-3-3-5-|
D|-0-0--0--3h/5--5--6--0----1--1--------------0--0--0--0--3h/5--5-6-0--0----------------|
        .                                              .

==============================================
Guitar 1:
e|----------------------------------------|
B|----------------------------------------|
G|----------------------------------------|
D|-0-----------------0--0-------0--0------|
A|-0--5-5-6-6-3-3-5--0--0--0-0--0--0--0-0-|
D|-0-----------------0--0--0-0--0--0--0-0-|
   .                       ...        ...

Guitar 2:
e|----------------------------------------|
B|----------------------------------------|
G|----------------------------------------|
D|-0-----------------0--0-------0--0------|
A|-0-----------------0--0-------0--0------|
D|-0-----------------0--0-------0--0------|

=================================================
Guitar 1:
e|------------------------------------------------------------------------|
B|------------------------------------------------------------------------|
G|------------------------------------------------------------------------|
D|---------------------------------5----0h3---5---6---8--6---5---6--1--0--|
A|-0-0-0--6-5---3-5---8-5------------5--0h3---5---6---8--6---5---6--1--0--|
D|-0-0-0------0-----0-----7-10-12-------0h3-0-5---6-0-8--6-0-5---6--1--0--|
   .....      .     .     .                 .       .      .

Guitar 2:
e|------------------------------------------------------------------------|
B|------------------------------------------------------------------------|
G|------------------------------------------------------------------------|
D|-0------------------------------------0h3---5---6---8--6---5---6--1--0--|
A|-0------------------------------------0h3---5---6---8--6---5---6--1--0--|
D|-0-------------------------------12\--0h3-0-5---6-0-8--6-0-5---6--1--0--|
                                            .       .      .

================================================
Guitar 1:
e|---------------------------------------------------------------------|
B|---------------------------------------------------------------------|
G|-----------------------------------------------------------------8-7-|
D|---------------------------------/10--0h3---5---6---8--6---5-6-5-8-7-|
A|-0-0-0-0--5-3-----------1--------/10--0h3---5---6---8--6---5-6-5-6-5-|
D|-0-0-0-0------5-3-0-1-3---3-1-0--/10--0h3-0-5---6-0-8--6-0-5-6-5-----|
   .......      .........   .....           .       .      .

Guitar 2:
e|---------------------------------------------------------------------|
B|---------------------------------------------------------------------|
G|-----------------------------------------------------------------8-7-|
D|--------------------------------------0h3---5---6---8--6---5-6-5-8-7-|
A|--------------------------------------0h3---5---6---8--6---5-6-5-6-5-|
D|----------------------------------12\-0h3-0-5---6-0-8--6-0-5-6-5-----|

================================================
Guitar 1:
e|------------------------------------------------------------------------|
B|------------------------------------------------------------------------|
G|------------------------------------------------------------------------|
D|---------------------------------5----0h3---5---6---8--6---5---6--1--0--|
A|-0-0-0--6-5---3-5---8-5------------5--0h3---5---6---8--6---5---6--1--0--|
D|-0-0-0------0-----0-----7-10-12-------0h3-0-5---6-0-8--6-0-5---6--1--0--|
   .....      .     .     .                 .       .      .

Guitar 2:
e|------------------------------------------------------------------------|
B|------------------------------------------------------------------------|
G|------------------------------------------------------------------------|
D|-0------------------------------------0h3---5---6---8--6---5---6--1--0--|
A|-0------------------------------------0h3---5---6---8--6---5---6--1--0--|
D|-0-------------------------------12\--0h3-0-5---6-0-8--6-0-5---6--1--0--|
                                            .       .      .

=================================================
Guitars 1 and 2:
e|---------------------------------------------------------------|
B|---------------------------------------------------------------|
G|--------------------------------5----------------------------8-|
D|--------------------------------5-0h3---5---6---8--6---5-6-5-8-|
A|-0-0-0-0--5-3-----------1-------3-0h3---5---6---8--6---5-6-5-6-|
D|-0-0-0-0------5-3-0-1-3---3-1-0---0h3-0-5---6-0-8--6-0-5-6-5---|
   .......      .........   .....       .       .      .

================================================
Guitar 1:
e|----------------------------------------------------------------------------------|
B|-10-------10---------10--------10--------10--------10--------11---10----11h/13~~~-|
G|----10-12------12-10-----10-12-----12-10-----10-12-----12-10---------12-----------|
D|----------------------------------------------------------------------------------|
A|----------------------------------------------------------------------------------|
D|----------------------------------------------------------------------------------|

Guitar 2:
e|----------------------------------------------------------------------------|
B|----------------------------------------------------------------------------|
G|------------------------------------------------------------12--------14~~~-|
D|-14-12-14-15--14-12-14--12-14-15--14-12-14--12-14-15--14-12-----15-14-------|
A|----------------------------------------------------------------------------|
D|----------------------------------------------------------------------------|

Guitars 3 and 4: Listen for timing.
e|---------------------------------------|
B|---------------------------------------|
G|---------------------------------------|
D|-12~-------------8~----1~--------------|
A|-12~-------7~----8~----1~------0-3-5-6-|
D|-12~------10~----8~----1~------0-3-5-6-|
                                 .......

==================================================
Guitars 1 and 2: Play both bars together once, then play the first bar and go on to the 
below VV.
e|----------------------------------------------|----------------------------------------|
B|----------------------------------------------|----------------------------------------|
G|--------------------------------3--3h/5--5----|----------------------------------------|
D|-0-0-----3h/5--5--6--0----1--1--3--3h/5--5--0-|-0--0-----3h/5--5-6-0--0--3-3-5-5-1-1-3-|
A|-0-0-----3h/5--5--6--0----1--1--1--1h/3--3--0-|-0--0-----3h/5--5-6-0--0--5-5-6-6-3-3-5-|
D|-0-0--0--3h/5--5--6--0----1--1--------------0-|-0--0--0--3h/5--5-6-0--0----------------|
        .                                               .

===================================================
Guitars 1 and 2: This is the part after you play the first bar above ^^^.
e|-------------------------------------|
B|-------------------------------------|
G|-------------------------------------|
D|-0-0---3h5--5-6-0--------------------|
A|-0-0---3h5--5-6-0--------------------|
D|-0-0-0-3h5--5-6-0--0-0-0-0-0-0-0-0-0-|
       .             .................

====================================================
Guitar 1:
e|------------------------------------------------------------------------|
B|------------------------------------------------------------------------|
G|------------------------------------------------------------------------|
D|---------------------------------5----0h3---5---6---8--6---5---6--1--0--|
A|-0-0-0--6-5---3-5---8-5------------5--0h3---5---6---8--6---5---6--1--0--|
D|-0-0-0------0-----0-----7-10-12-------0h3-0-5---6-0-8--6-0-5---6--1--0--|
   .....      .     .     .                 .       .      .

Guitar 2:
e|------------------------------------------------------------------------|
B|------------------------------------------------------------------------|
G|------------------------------------------------------------------------|
D|-0------------------------------------0h3---5---6---8--6---5---6--1--0--|
A|-0------------------------------------0h3---5---6---8--6---5---6--1--0--|
D|-0-------------------------------12\--0h3-0-5---6-0-8--6-0-5---6--1--0--|
                                            .       .      .

================================================
Guitar 1:
e|---------------------------------------------------------------------|
B|---------------------------------------------------------------------|
G|-----------------------------------------------------------------8-7-|
D|---------------------------------/10--0h3---5---6---8--6---5-6-5-8-7-|
A|-0-0-0-0--5-3-----------1--------/10--0h3---5---6---8--6---5-6-5-6-5-|
D|-0-0-0-0------5-3-0-1-3---3-1-0--/10--0h3-0-5---6-0-8--6-0-5-6-5-----|
   .......      .........   .....           .       .      .

Guitar 2:
e|---------------------------------------------------------------------|
B|---------------------------------------------------------------------|
G|-----------------------------------------------------------------8-7-|
D|--------------------------------------0h3---5---6---8--6---5-6-5-8-7-|
A|--------------------------------------0h3---5---6---8--6---5-6-5-6-5-|
D|----------------------------------12\-0h3-0-5---6-0-8--6-0-5-6-5-----|
                                            .       .      .


================================================
Guitar 1:
e|------------------------------------------------------------------------|
B|------------------------------------------------------------------------|
G|------------------------------------------------------------------------|
D|---------------------------------5----0h3---5---6---8--6---5---6--1--0--|
A|-0-0-0--6-5---3-5---8-5------------5--0h3---5---6---8--6---5---6--1--0--|
D|-0-0-0------0-----0-----7-10-12-------0h3-0-5---6-0-8--6-0-5---6--1--0--|
   .....      .     .     .                 .       .      .

Guitar 2:
e|------------------------------------------------------------------------|
B|------------------------------------------------------------------------|
G|------------------------------------------------------------------------|
D|-0------------------------------------0h3---5---6---8--6---5---6--1--0--|
A|-0------------------------------------0h3---5---6---8--6---5---6--1--0--|
D|-0-------------------------------12\--0h3-0-5---6-0-8--6-0-5---6--1--0--|
                                            .       .      .

=================================================
Guitars 1 and 2:
e|---------------------------------------------------------------|
B|---------------------------------------------------------------|
G|--------------------------------5----------------------------8-|
D|--------------------------------5-0h3---5---6---8--6---5-6-5-8-|
A|-0-0-0-0--5-3-----------1-------3-0h3---5---6---8--6---5-6-5-6-|
D|-0-0-0-0------5-3-0-1-3---3-1-0---0h3-0-5---6-0-8--6-0-5-6-5---|
   .......      .........   .....       .       .      .

================================================
Guitar 1:
e|----------------------------------------------------------------------------------|
B|-10-------10---------10--------10--------10--------10--------11---10----11h/13~~~-|
G|----10-12------12-10-----10-12-----12-10-----10-12-----12-10---------12-----------|
D|----------------------------------------------------------------------------------|
A|----------------------------------------------------------------------------------|
D|----------------------------------------------------------------------------------|

Guitar 2:
e|----------------------------------------------------------------------------|
B|----------------------------------------------------------------------------|
G|------------------------------------------------------------12--------14~~~-|
D|-14-12-14-15--14-12-14--12-14-15--14-12-14--12-14-15--14-12-----15-14-------|
A|----------------------------------------------------------------------------|
D|----------------------------------------------------------------------------|

Guitars 3 and 4: Listen for timing.
e|---------------------------------------|
B|---------------------------------------|
G|---------------------------------------|
D|-12~-------------8~----1~--------------|
A|-12~-------7~----8~----1~------0-3-5-6-|
D|-12~------10~----8~----1~------0-3-5-6-|
                                 .......

=======================================================
Guitars 1 and 2: Play both bars together once, then play the first bar and go on to the 
below VV.
e|----------------------------------------------|----------------------------------------|
B|----------------------------------------------|----------------------------------------|
G|--------------------------------3--3h/5--5----|----------------------------------------|
D|-0-0-----3h/5--5--6--0----1--1--3--3h/5--5--0-|-0--0-----3h/5--5-6-0--0--3-3-5-5-1-1-3-|
A|-0-0-----3h/5--5--6--0----1--1--1--1h/3--3--0-|-0--0-----3h/5--5-6-0--0--5-5-6-6-3-3-5-|
D|-0-0--0--3h/5--5--6--0----1--1--------------0-|-0--0--0--3h/5--5-6-0--0----------------|
        .                                               .

=======================================================
Guitars 1 and 2: This is the part you play after the first bar above ^^^.
e|----------------------------------------------------|
B|----------------------------------------------------|
G|----------------------------------------------------|
D|-0-0---3h5--5--6------------------------------------|
A|-0-0---3h5--5--6------------------------------------|
D|-0-0-0-3h5--5--6--0-0-0-0-0-3-3-3-3-5-5-5-5-6-6-6-6-|
       .
========================================================
Guitars 1 and 2: Play both bars together once, then play the first bar only.
e|----------------------------------------------|----------------------------------------|
B|----------------------------------------------|----------------------------------------|
G|--------------------------------3--3h/5--5----|----------------------------------------|
D|-0-0-----3h/5--5--6--0----1--1--3--3h/5--5--0-|-0--0-----3h/5--5-6-0--0--3-3-5-5-1-1-3-|
A|-0-0-----3h/5--5--6--0----1--1--1--1h/3--3--0-|-0--0-----3h/5--5-6-0--0--5-5-6-6-3-3-5-|
D|-0-0--0--3h/5--5--6--0----1--1--------------0-|-0--0--0--3h/5--5-6-0--0----------------|
        .                                               .

=======================================================
Guitars 1 and 2: This is the part you play after the first bar above ^^^.
e|----------------------------------------------------|
B|----------------------------------------------------|
G|----------------------------------------------------|
D|-0-0---3h5--5--6------------------------------------|
A|-0-0---3h5--5--6------------------------------------|
D|-0-0-0-3h5--5--6--0-0-0-0-0-3-3-3-3-5-5-5-5-6-6-6-6-|
       .

=======================================================
Guitar 1: Play this twice.
e|------------------------------------------------------------------|
B|------------------------------------------------------------------|
G|------------------------------------------------------------------|
D|-5-3-----6-5-----5-3---6-5---8-7----------6-5-----5-3---6-5---8-7-|
A|-----5-3-----6-------------------10-8-5-3-----6-------------------|
D|---------------7-----7-----7--------------------7-----7-----7-----|
       ...     ...     .     .          ...     ...     .     .

Guitar 2: Play this twice.
e|-----------------------------------------------------------------|
B|-----------------------------------------------------------------|
G|-----------------------------------------------------------------|
D|-----------------------------------------------------------------|
A|-5-3-----6-5-----5-3---6-5---8-7-5-3-----6-5-----5-3---6-5---8-7-|
D|-----5-3-----6-0-----0-----7---------5-3-----6-0-----0-----7-----|
       ...     ...     .     .         ...     ...     .     .

=========================================================
Guitar 1:
e|----------------------------------|
B|----------------------------------|
G|----------------------------------|
D|----------------------------------|
A|-0-0-0-0--5-3-----------1-------3-|
D|-0-0-0-0------5-3-0-1-3---3-1-0---|
   .......      .........   .....

Guitar 2:
e|----------------------------------|
B|----------------------------------|
G|----------------------------------|
D|----------------------------------|
A|-0-0-0-0--------------------------|
D|-0-0-0-0--------------------------|
   .......

===========================================================
Guitars 1 and 2:
e|---------------------------------------------------|
B|---------------------------------------------------|
G|---------------------------------------------------|
D|---------------------------------------------------|
A|-0-0-0-0--5-3-----------1---------0-0-0-0--5-3-----|
D|-0-0-0-0------5-3-0-1-3---3-1-0-1-0-0-0-0------5-3-|
   .......      .........   .....   .......      ...

============================================================
Guitars 1 and 2:
e|--------------------------------------------------|
B|--------------------------------------------------|
G|--------------------------------------------------|
D|------------------------------------8--8----1-3-1-|
A|-------1-------3-0-0-0-0--5-3-------8--8--0-1-3-1-|
D|-0-1-3---3-1-0---0-0-0-0------5-3-0-8--8--0-1-3-1-|
   .....   .....   .......      .....       .

============================================================
Guitars 1 and 2:
e|-------------------------------------------------------------------|
B|-------------------------------------------------------------------|
G|-------------------------------------------------------------------|
D|-------------------------------------------------------------------|
A|-0-0-0-0--5-3-----------1-------3-0-0-0-0--5-3-----------1---------|
D|-0-0-0-0------5-3-0-1-3---3-1-0---0-0-0-0------5-3-0-1-3---3-1-0-1-|
   .......      .........   .....   .......      .........   .......

============================================================
Guitars 1 and 2:
e|------------------------------------------------------------------|
B|------------------------------------------------------------------|
G|------------------------------------------------------------------|
D|-----------------------------------------------------8--8---1-3-1-|
A|-0-0-0-0--5-3-----------1-------3-0-0-0-0--5-3-------8--8-0-1-3-1-|
D|-0-0-0-0------5-3-0-1-3---3-1-0---0-0-0-0------5-3-0-8--8-0-1-3-1-|
   .......      .........   .....   .......      .....      .

============================================================
Guitars 1 and 2:
e|-----------------|
B|-----------------|
G|-----------------|
D|-0-0-----0-0-----|
A|-0-0-0-0-0-0-0-0-|
D|-0-0-0-0-0-0-0-0-|
       ...     ...

============================================================
Guitar 1:
e|--------------------------------------------10-11-13-12-10--12-10----10-10---|
B|----------------------10-12--10-12-13-15-13-----------------------13-------0-|
G|----------------10-12------------------------------------------------------0-|
D|-10-12-14-12-14--------------------------------------------------------------|
A|-----------------------------------------------------------------------------|
D|-----------------------------------------------------------------------------|

Guitar 1:
                       1____
e|-13p10----10------------------------------------------------|
B|-------13----13p10-13b----(13)p10----10---------------------|
G|----------------------------------13----13p10----10-12~~~~~~|
D|----------------------------------------------12------------|
A|------------------------------------------------------------|
D|------------------------------------------------------------|

Guitar 1: Some kind of effect used on here.
                    1____
e|----------------------------------------------|
B|-------18-20p18-18b----(18)-18----18h20p18----|
G|-17h19-------------------------19----------19-|
D|----------------------------------------------|
A|----------------------------------------------|
D|----------------------------------------------|

Guitar 2: Play this twice for the above parts.
e|---------------------------------------------|
B|---------------------------------------------|
G|---------------------------------------------|
D|-0--0------3h5--5--6--0----------------------|
A|-0--0--0---3h5--5--6--0----0--0--0--0-0-0--0-|
D|-0--0--0---3h5--5--6--0----0--0--0--0-0-0--0-|
         .                   .................

==================================================================
Guitar 1:
e|---------------------------------13--------17--------17--------20-------|
B|-18h22p18---------------------------------------------------------------|
G|----------19-19-20b~~~~~~~13h/14----14h/17----17h/19----19h/21----21~~~-|
D|------------------------------------------------------------------------|
A|------------------------------------------------------------------------|
D|------------------------------------------------------------------------|

Guitar 2:
e|----------------------------------------------------------|
B|----------------------------------------------------------|
G|----------------------------------------------------------|
D|------------------0--0-----3h5--5--6--0---1-1-1-1-1-1-----|
A|-0---0-0-0-0-0-0--0--0--0--3h5--5--6--0---1-1-1-1-1-1---0-|
D|-0---0-0-0-0-0-0--0--0--0--3h5--5--6--0---1-1-1-1-1-1---0-|
   ...............        .                               .

====================================================================
Guitar 1: Play this twice.
e|------------------------------------------------------------------|
B|------------------------------------------------------------------|
G|------------------------------------------------------------------|
D|-5-3-----6-5-----5-3---6-5---8-7----------6-5-----5-3---6-5---8-7-|
A|-----5-3-----6-------------------10-8-5-3-----6-------------------|
D|---------------7-----7-----7--------------------7-----7-----7-----|
       ...     ...     .     .          ...     ...     .     .

Guitar 2: Play this twice.
e|-----------------------------------------------------------------|
B|-----------------------------------------------------------------|
G|-----------------------------------------------------------------|
D|-----------------------------------------------------------------|
A|-5-3-----6-5-----5-3---6-5---8-7-5-3-----6-5-----5-3---6-5---8-7-|
D|-----5-3-----6-0-----0-----7---------5-3-----6-0-----0-----7-----|
       ...     ...     .     .         ...     ...     .     .

=====================================================================
Guitar 1:
e|------------------------------------------------------------------------|
B|------------------------------------------------------------------------|
G|------------------------------------------------------------------------|
D|---------------------------------5----0h3---5---6---8--6---5---6--1--0--|
A|-0-0-0--6-5---3-5---8-5------------5--0h3---5---6---8--6---5---6--1--0--|
D|-0-0-0------0-----0-----7-10-12-------0h3-0-5---6-0-8--6-0-5---6--1--0--|
   .....      .     .     .                 .       .      .

Guitar 2:
e|------------------------------------------------------------------------|
B|------------------------------------------------------------------------|
G|------------------------------------------------------------------------|
D|-0------------------------------------0h3---5---6---8--6---5---6--1--0--|
A|-0------------------------------------0h3---5---6---8--6---5---6--1--0--|
D|-0-------------------------------12\--0h3-0-5---6-0-8--6-0-5---6--1--0--|
                                            .       .      .

====================================================================
Guitars 1 and 2:
e|---------------------------------------------------------------|
B|---------------------------------------------------------------|
G|--------------------------------5----------------------------8-|
D|--------------------------------5-0h3---5---6---8--6---5-6-5-8-|
A|-0-0-0-0--5-3-----------1-------3-0h3---5---6---8--6---5-6-5-6-|
D|-0-0-0-0------5-3-0-1-3---3-1-0---0h3-0-5---6-0-8--6-0-5-6-5---|
   .......      .........   .....       .       .      .

=====================================================================
Guitars 1 and 2:
e|------------------------------------------------------------------------|
B|------------------------------------------------------------------------|
G|------------------------------------------------------------------------|
D|---------------------------------5----0h3---5---6---8--6---5---6--1--0--|
A|-0-0-0--6-5---3-5---8-5------------5--0h3---5---6---8--6---5---6--1--0--|
D|-0-0-0------0-----0-----7-10-12-------0h3-0-5---6-0-8--6-0-5---6--1--0--|
   .....      .     .     .                 .       .      .

======================================================================
Guitars 1 and 2:
e|---------------------------------------------------------------|
B|---------------------------------------------------------------|
G|--------------------------------5----------------------------8-|
D|--------------------------------5-0h3---5---6---8--6---5-6-5-8-|
A|-0-0-0-0--5-3-----------1-------3-0h3---5---6---8--6---5-6-5-6-|
D|-0-0-0-0------5-3-0-1-3---3-1-0---0h3-0-5---6-0-8--6-0-5-6-5---|
   .......      .........   .....       .       .      .

=======================================================================
Guitar 1:
e|----------------------------------------------------------------------------------|
B|-10-------10---------10--------10--------10--------10--------11---10----11h/13~~~-|
G|----10-12------12-10-----10-12-----12-10-----10-12-----12-10---------12-----------|
D|----------------------------------------------------------------------------------|
A|----------------------------------------------------------------------------------|
D|----------------------------------------------------------------------------------|

Guitar 2:
e|----------------------------------------------------------------------------|
B|----------------------------------------------------------------------------|
G|------------------------------------------------------------12--------14~~~-|
D|-14-12-14-15--14-12-14--12-14-15--14-12-14--12-14-15--14-12-----15-14-------|
A|----------------------------------------------------------------------------|
D|----------------------------------------------------------------------------|

Guitars 3 and 4: Listen for timing.
e|---------------------------------------|
B|---------------------------------------|
G|---------------------------------------|
D|-12~-------------8~----1~--------------|
A|-12~-------7~----8~----1~------0-3-5-6-|
D|-12~------10~----8~----1~------0-3-5-6-|
                                 .......

===========================================================================
Guitars 1 and 2:
e|---------------------------------|
B|---------------------------------|
G|---------------------------------|
D|-0-0---3h5--5-6-0----------------| x3
A|-0-0-0-3h5--5-6-0--0-0-0-0-0-0-0-|
D|-0-0-0-3h5--5-6-0--0-0-0-0-0-0-0-|
       .             .............

===========================================================================
Guitars 1 and 2:
e|----------------------------------------------------|
B|----------------------------------------------------|
G|----------------------------------------------------|
D|-0-0---3h5--5--6------------------------------------|
A|-0-0---3h5--5--6------------------------------------|
D|-0-0-0-3h5--5--6--0-0-0-0-0-3-3-3-3-5-5-5-5-6-6-6-6-|
       .

===========================================================================
Guitars 1 and 2: Play both bars together once, then play the first bar and go on to the 
below VV.
e|----------------------------------------------|----------------------------------------|
B|----------------------------------------------|----------------------------------------|
G|--------------------------------3--3h/5--5----|----------------------------------------|
D|-0-0-----3h/5--5--6--0----1--1--3--3h/5--5--0-|-0--0-----3h/5--5-6-0--0--3-3-5-5-1-1-3-|
A|-0-0-----3h/5--5--6--0----1--1--1--1h/3--3--0-|-0--0-----3h/5--5-6-0--0--5-5-6-6-3-3-5-|
D|-0-0--0--3h/5--5--6--0----1--1--------------0-|-0--0--0--3h/5--5-6-0--0----------------|
        .                                               .

============================================================================
Guitars 1 and 2: Play this after you play the first bar above for the second time. ^^^
e|----------------------------------------|
B|----------------------------------------|
G|----------------------------------------|
D|-0--0-----3h5--5--6--0----------------0-|
A|-0--0--0--3h5--5--6--0----------------0-|
D|-0--0--0--3h5--5--6--0--0-0-0-0-0-0-0-0-|
         .                ...............


Please Rate and Comment this tab.
[travis]
Tap to rate this tab
 
# A B C D E F G H I J K L M N O P Q R S T U V W X Y Z