Song name
# A B C D E F G H I J K L M N O P Q R S T U V W X Y Z

Shadows Fall - Dead And Gone tab

                    DEAD AND GONE(intro)
                     SHADOWS FALL
                          DROP C (CGCFAD)


1|--------------------------------5---------5---------5---------5------------|
2|-------3--5--6--8--6--5--6--3------3---------3---------3---------3---------|
3|--------------------------------------2---------2--------2-----------------|
4|-----0---------------------------------------------------------------------|
5|---0-----------------------------------------------------------------------|
6|-0------------------------PLAY-5-TIMES-------------------------------5-3-0-|

1|----------------------------------------------------------------------------|
2|----------------------------------------------------------------------------|
3|-------10-------10-------10------10-9---------10------10--------------------|
4|------------------------------------------------------------5-4-2-3-6-4-2-3-|
5|------------------------------------------------------------5-4-2-3-6-4-2-3-|
6|--000------000------000------00----------000-----000--------5-4-2-3-6-4-2-3-|
    pm=======================================================================

sorry thats all i got for now. if nobody beats me to it,ill finish it later
                   tabbed by:mike whittle
Tap to rate this tab
# A B C D E F G H I J K L M N O P Q R S T U V W X Y Z