Song name
# A B C D E F G H I J K L M N O P Q R S T U V W X Y Z

Shadows Fall - In Effigy tab

-------------------------------------------------------------------------------
			     In Effigy - Shadows Fall
-------------------------------------------------------------------------------
Tabbed by: metalmonkey147
Email:

Tuning: Drop C

|------------------------------------------------------|
|------------------------------------------------------|
|------------------------------------------------------|
|-3-----------5-----------7/9-7/9-7/9------------------|
|-1--1--3--5--3--3--5--7--5/7-5/7-5/7------------------|
|----1--3--5-----3--5--7---------------2-2-2-2-2-2-2---|
     .  .  .     .  .  .               . . . . . . .
|---------------------------------------------------------------------------|
|---------------------------------------------------------------------------|
|---------------------------------------------------5-4----4h5p4------------|
|-7/9-7/9--------------------------7/9-7/9--------------5--------5----------|
|-5/7-5/7--------------------------5/7-5/7----------------------------------|
|----------2-2-2-2-2-2-2-5555-4444----------2-2-2-2-------------------------|
           . . . . . . . .... ....          . . . .
|---------------------------------------------------------------------------|
|---------------------------------------------------------------------------|
|---------------------------------------------------------------------------|
|-7/9-7/9---------------------------3--------------5------------------------|
|-5/7-5/7---------------------------1----3----5----3----5----7--------------|
|----------2-2-2-2-2-2-2-5555-4444-------3----5---------5----7--------------|
           . . . . . . . .... ....
|---------------------------------------------------------------------------|
|---------------------------------------------------------------------------|
|---------------------------------------------------5-4----4h5p4------------|
|-7/9-7/9--------------------------7/9-7/9--------------5--------5----------|
|-5/7-5/7--------------------------5/7-5/7----------------------------------|
|----------2-2-2-2-2-2-2-5555-4444----------2-2-2-2-------------------------|
           . . . . . . . .... ....          . . . .
|---------------------------------------------------------------------------|
|---------------------------------------------------------------------------|
|---------------------------------------------------------------------------|
|-7/9-7/9---------------------------3--------------5------------------------|
|-5/7-5/7---------------------------1----3----5----3----5-5-----------------|
|----------2-2-2-2-2-2-2-5555-4444-------3----5---------5-5-----------------|
           . . . . . . . .... ....                      . .
|------------------------------------------------------------------------------|
|-------------------------------------------12/13--12---------10h12--10--------|
|-/9---11---12---11----11h12p9--------------------------12---------------------|
|------------------------------12-----12---------------------------------------|
|------------------------------------------------------------------------------|
|------------------------------------------------------------------------------|

|-----------------------------------------------------------------------------------|
|-------------------------------------------15/17--15-------------------------------|
|-/12---14---16---14---14h16p12-----------------------------------------------------|
|-------------------------------16----16--------------------------------------------|
|------------------------------------------------------10-9--4-5--10-9--4-5--4-5-7--|
|------------------------------------------------------10-9--4-5--10-9--4-5--4-5-7--|

|------------------------------|
|------------------------------|
|------------------------------|
|-7/9-7/9-7/9------------------|
|-5/7-5/7-5/7------------------|
|--------------2-2-2-2-2-2-2---|
               . . . . . . .
|---------------------------------------------------------------------------|
|---------------------------------------------------------------------------|
|---------------------------------------------------5-4----4h5p4------------|
|-7/9-7/9--------------------------7/9-7/9--------------5--------5----------|
|-5/7-5/7--------------------------5/7-5/7----------------------------------|
|----------2-2-2-2-2-2-2-5555-4444----------2-2-2-2-------------------------|
           . . . . . . . .... ....          . . . .
|---------------------------------------------------------------------------|
|---------------------------------------------------------------------------|
|---------------------------------------------------------------------------|
|-7/9-7/9---------------------------3--------------5------------------------|
|-5/7-5/7---------------------------1----3----5----3----5----7--------------|
|----------2-2-2-2-2-2-2-5555-4444-------3----5---------5----7--------------|
           . . . . . . . .... ....
|---------------------------------------------------------------------------|
|---------------------------------------------------------------------------|
|---------------------------------------------------5-4----4h5p4------------|
|-7/9-7/9--------------------------7/9-7/9--------------5--------5----------|
|-5/7-5/7--------------------------5/7-5/7----------------------------------|
|----------2-2-2-2-2-2-2-5555-4444----------2-2-2-2-------------------------|
           . . . . . . . .... ....          . . . .
|---------------------------------------------------------------------------|
|---------------------------------------------------------------------------|
|---------------------------------------------------------------------------|
|-7/9-7/9---------------------------3--------------5------------------------|
|-5/7-5/7---------------------------1----3----5----3----5-5-----------------|
|----------2-2-2-2-2-2-2-5555-4444-------3----5---------5-5-----------------|
           . . . . . . . .... ....                      . .
|------------------------------------------------------------------------------|
|-------------------------------------------12/13--12---------10h12--10--------|
|-/9---11---12---11----11h12p9--------------------------12---------------------|
|------------------------------12-----12---------------------------------------|
|------------------------------------------------------------------------------|
|------------------------------------------------------------------------------|

|------------------------------------------------------|
|-------------------------------------------15/17--15--|
|-/12---14---16---14---14h16p12------------------------|
|-------------------------------16----16---------------|
|------------------------------------------------------|
|------------------------------------------------------|

|-------------------------------------------------------------|
|-------------------------------------------------------------|
|-------------------------------------------------------------|
|-------------------------------------------------------------|
|-10-9--4-5--10-9--4-5--4-5-7--10-9--4-5--10-9--4-5--4-5-7----|
|-10-9--4-5--10-9--4-5--4-5-7--10-9--4-5--10-9--4-5--4-5-7----|

|---------------------------------------------------------------------------|
|---------------------------------------------------------------------------|
|---------------------------------------------------------------------------|
|------------------------------------------------------2222-4444-5555-------|
|-2-2-----------------8-7-2-5-----2-2---------------------------------------|
|-2-2-2-2-222-2-2-222-8-7-2-5-----2-2-2-2-222-2-2-2222----------------------|

|---------------------------------------------------------------------------|
|---------------------------------------------------------------------------|
|---------------------------------------------------------------------------|
|------------------------------2222-4444-5555-------------------------------|
|-2-2-----------------------------------------2-2-----------------8-7-2-5---|
|-2-2-2-2-222-2-2-222-333-2222----------------2-2-2-2-222-2-2-222-8-7-2-5---|

|-------------------------|
|-------------------------|
|-------------------------|
|-------------------------|
|-7---5---8---5---7--5----|
|-7---5---8---5---7--5----|

Sorry i dont know the solo yet, this is played under the solo

|----------------------------------------------------------------------------------|
|----------------------------------------------------------------------------------|
|----------------------------------------------------------------------------------|
|----------------------------5-------5-----7-----------7-----------5-------5-------|
|-7------5------7------3-----3---3---3-5-3-5-----8-----5-----3-----3---3---3-5-3---|
|-7------5------7------3---------3-----5-3-------8-----------3---------3-----5-3---|

|-------------------------------------------------------------------------|
|-------------------------------------------------------------------------|
|-------------------------------------------------------------------------|
|-3----------5----------3----------5--------------------------------------|
|-1---3---5--3---5---7--1---3---5--3---5---7----2-----(2)-------(2)-------|
|-----3---5------5---7------3---5------5---7----2-----(2)-------(2)-------|

 (2:17)
|---------------------------------------------------------------------------|
|---------------------------------------------------------------------------|
|---------------------------------------------------------------------------|
|--------------------------------------------------2222-4444-5555-----------|
|-5--0--2-5-2--3--2--2--8-7-2-5--2-5-2--3--2--------------------------------|
|-5--0--2-5-2--3--2--2--8-7-2-5--2-5-2--3--2--2222--------------------------|
        . . .  .  .  .           . . .  .  .

|-------------------------------------------------------------|
|-------------------------------------------------------------|
|-------------------------------------------------------------|
|-------------------------------------------------------------|
|-2-5-2--3--2--2--8-7-2-5----7----5----8----5---7--5----------|
|-2-5-2--3--2--2--8-7-2-5----7----5----8----5---7--5----------|
  . . .  .  .  .

|-------------------------------------------------------------|
|-------------------------------------------------------------|
|-------------------------------------------------------------|
|--------------------------------------------2222-4444-5555---|
|-2-5-2--3--2--2--8-7-2-5--2-5-2--3--2------------------------|
|-2-5-2--3--2--2--8-7-2-5--2-5-2--3--2--2222------------------|
  . . .  .  .  .           . . .  .  .

|-------------------------------------------------------------|
|-------------------------------------------------------------|
|-------------------------------------------------------------|
|-------------------------------------------------------------|
|-2-5-2--3--2--2--8-7-2-5----7----5----8----5---7--5----------|
|-2-5-2--3--2--2--8-7-2-5----7----5----8----5---7--5----------|
  . . .  .  .  .

|---------------------------------------------------------------------------|
|---------------------------------------------------------------------------|
|---------------------------------------------------5-4----4h5p4------------|
|-7/9-7/9--------------------------7/9-7/9--------------5--------5----------|
|-5/7-5/7--------------------------5/7-5/7----------------------------------|
|----------2-2-2-2-2-2-2-5555-4444----------2-2-2-2-------------------------|
           . . . . . . . .... ....          . . . .
|---------------------------------------------------------------------------|
|---------------------------------------------------------------------------|
|---------------------------------------------------------------------------|
|-7/9-7/9---------------------------3--------------5------------------------|
|-5/7-5/7---------------------------1----3----5----3----5----7--------------|
|----------2-2-2-2-2-2-2-5555-4444-------3----5---------5----7--------------|
           . . . . . . . .... ....
|---------------------------------------------------------------------------|
|---------------------------------------------------------------------------|
|---------------------------------------------------5-4----4h5p4------------|
|-7/9-7/9--------------------------7/9-7/9--------------5--------5----------|
|-5/7-5/7--------------------------5/7-5/7----------------------------------|
|----------2-2-2-2-2-2-2-5555-4444----------2-2-2-2-------------------------|
           . . . . . . . .... ....          . . . .
|---------------------------------------------------------------------------|
|---------------------------------------------------------------------------|
|---------------------------------------------------------------------------|
|-7/9-7/9---------------------------3--------------5------------------------|
|-5/7-5/7---------------------------1----3----5----3----5-5-----------------|
|----------2-2-2-2-2-2-2-5555-4444-------3----5---------5-5-----------------|
           . . . . . . . .... ....                      . .
|------------------------------------------------------------------------------|
|-------------------------------------------12/13--12---------10h12--10--------|
|-/9---11---12---11----11h12p9--------------------------12---------------------|
|------------------------------12-----12---------------------------------------|
|------------------------------------------------------------------------------|
|------------------------------------------------------------------------------|

|------------------------------------------------------|
|-------------------------------------------15/17--15--|
|-/12---14---16---14---14h16p12------------------------|
|-------------------------------16----16---------------|
|------------------------------------------------------|
|------------------------------------------------------|

|-------------------------------------------------------------|
|-------------------------------------------------------------|
|-------------------------------------------------------------|
|-------------------------------------------------------------|
|-10-9--4-5--10-9--4-5--4-5-7--10-9--4-5--10-9--4-5--2-2------|
|-10-9--4-5--10-9--4-5--4-5-7--10-9--4-5--10-9--4-5--2-2------|


************************************

| .   palm mute
| /   slide up
| \   slide down
| h   hammer-on
| p   pull-off
| ~   vibrato
| *   harmonic
| x   Mute note
| b   Bend
| pb  Pre-bend
| br  Bend release
| pbr Pre-bend release
| brb Bend release bend

************************************
Tap to rate this tab
 
# A B C D E F G H I J K L M N O P Q R S T U V W X Y Z