Song name
# A B C D E F G H I J K L M N O P Q R S T U V W X Y Z

Shadows Fall - Age Of Quarrel tab

-------------------------------------------------------------------------------
			     Age of Quarrel - Shadows Fall
-------------------------------------------------------------------------------
Tabbed by: TheTroy
Tuning:Drop D..!..!

Intro - guitar starts at 40 seconds

So im not sure when the chorus would start and how to seperate the sections so
ill just name them by phases. intro is phase 1. verse is phase 2, etc...
Oh, and add palm mutes where necessary

Rhythm
e|---------------------------------------------------------------------------|
B|---------------------------------------------------------------------------|
G|---------------------------------------------------------------------------|
D|-0-000-0000000-000-000-0000000---------------------------------------------|
A|-0-000-0000000-000-000-0000000---------------------------------------------|
E|-0-000-0000000-000-000-0000000---------------------------------------------|

Lead - i like to use my pinky and slide the 6 and 5 to make it easier for pulling
off the 5 and 3 on the D string
e|---------------------------------------------------------------------------|
B|---------------------------------------------------------------------------|
G|---------------------------------------------------------------------------|
D|---------------------------------------5p3---------------------------------|
A|---5p3h5-----6p5h6---3---5p3h5-----6\5-----5p3p2~--------------------------|
E|-0-------0-0-------0---0-------0-0-----------------------------------------|

Lead harmony - starts at 1:22 
e|---------------------------------------------------------------------------|
B|---------------------------------------------------------------------------|
G|---------------------------------------5p3---------------------------------|
D|---5p3h5-----6p5h6---3---5p3h5-----6\5-----5p3p2~--------------------------|
A|---------------------------------------------------------------------------|
E|-0-------0-0-------0---0-------0-0-----------------------------------------|


Verse
e|---------------------------------------------------------------------------|
B|---------------------------------------------------------------------------|
G|---------------------------------------------------------------------------|
D|-5/7-0000-5/5-5-000000-5/7-0000-5/6-6-000000-------------------------------|
A|-3/5-0000-3/5-5-000000-3/5-0000-5/6-6-000000-------------------------------|
E|-----0000-------000000-----0000-5/6-6-000000-------------------------------|

Repeat intro with lead and harmony

Phase 3
e|---------------------------------------------------------------------------|
B|---------------------------------------------------------------------------|
G|---------------------------------------------------------------------------|
D|-0-001-0-003-0-001-0-006---------------------------------------------------|
A|-0-001-0-003-0-001-0-006---------------------------------------------------|
E|-0-001-0-003-0-001-0-006---------------------------------------------------|


Phase 4  X2 - sorry if my timing is hard to read
e|---------------------------------------------------------------------------|
B|---------------------------------------------------------------------------|
G|---------------------------------------------------------------------------|
D|-7x8x5x7x10x8x7x8x5-10601--------------------------------------------------|
A|-5x6x3x5x8-x6x5x6x3-10601--------------------------------------------------|
E|--------------------10601--------------------------------------------------|

Phase 5
e|---------------------------------------------------------------------------|
B|---------------------------------------------------------------------------|
G|---------------------------------------------------------------------------|
D|-0-0-103-0-0-601-0-0-103-0-0-801-------------------------------------------|
A|-0-0-103-0-0-601-0-0-103-0-0-801-------------------------------------------|
E|-0-0-103-0-0-601-0-0-103-0-0-801-------------------------------------------|

Phase 6
e|---------------------------------------------------------------------------|
B|-3~-3~-3~-3~---------------------------------------------------------------|
G|-2~-2~-2~-2~---------------------------------------------------------------|
D|-0~-0~-0~-0~---------------------------------------------------------------|
A|-0~-0~-0~-0~---------------------------------------------------------------|
E|-0~-0~-0~-0~---------------------------------------------------------------|

Phase 7
e|---------------------------------------------------------------------------|
B|---------------------------------------------------------------------------|
G|---------------------------------------------------------------------------|
D|-0-5--3-6-654-7-7~-1/6-----------------------------------------------------|
A|-0-3--1-4-432-5-5~-1/6-----------------------------------------------------|
E|-0-----------------1/6-----------------------------------------------------|

Repeat Verse

Repeat Intro

Now play a slowed down version of phase 7

and you're good to go!


oh, and sorry i didnt put how many times to play each section. forgot.
************************************

| /   slide up
| \   slide down
| h   hammer-on
| p   pull-off
| ~   vibrato
| +   harmonic
| x   Mute note
| b   Bend
| pb  Pre-bend
| br  Bend release
| pbr Pre-bend release
| brb Bend release bend

************************************
Tap to rate this tab
 
# A B C D E F G H I J K L M N O P Q R S T U V W X Y Z