Song name
# A B C D E F G H I J K L M N O P Q R S T U V W X Y Z

Shadows Fall - Deadworld tab

song: Deadworld
Band: Shadows Fall                 Tabbed By: javeroms
album: Fallout From The War

Gtr I y Gtr II [Drop C] (C2,G2,C3,F3,A3,D4)

its in progressss :3

=opening=             
Gtr I          <    two times    >
|-------------|-------------------|
|-------------|-------------------|
|-------------|-------------------|
|-------------|-8----0-----1----0-| 
|-0-----------|-8----0-----1----0-|
|-0-----------|-8----0-----1----0-|
Gtr II [whole intro]
|-------------|
|-------------|
|---10-0-9-0--| [whole intro]
|-------------|
|-------------|
|-------------|

 = riff 1 =
Gtr I, II
|------------------------------------------| <
|------------------------------------------| <
|---------------------------7b----7b-7b----| <
|-8-------------------------7b----7b-7b----| < 
|-8----888101010887788---------------------| < 
|-8--88----------------0000---000---0--00--| <  
    PM_____________________   ___   _  __    <    Two times
                                             <
                                             <
                                             <
                                             <     (x2)
Gtr I               Gtr I y Gtr II           <
|-----------------|---------------------|    <
|-----------------|---------------------|    <
|-----------------|------7b----7b-7b----|    <
|-1------------532|------7b----7b-7b----|    <
|-1---8705-8-7----|-------------------0-|    <
|-1-00------------|-0000---000---0--000-|    <
  PM__              ____   ___   _  ___      <

Gtr I
|-------------------------------------------|----------------------------------|
|-------------------------------------------|----------------------------------|
|-------------------------------------------|----------------------------------|
|-8----0----------------1----0--------------|-8----0----------------1----0-----|
|-8----0----------------1----0--------------|-8----0----------------1----0-----|
|-8----0-000-000-000-0--1----0-000-000-000-0|-8----0-000-000-000-0--1----0-----|      
         ___ ___ ___ _         ___ ___ ___ _       _ ___ ___ ___ _   
Gtr II [while "Gtr I" its playing]
|-------------|
|-------------|
|---10-0-9-0--| 
|-------------|
|-------------|
|-------------|

then play riff 1

[01:27]
Gtr 1 
|-------------|----|                                      |-------|
|-------------|----|                                      |-------|
|-------------|----|                                      |-------|
|-0-----------|-0--|                                      |-------|
|-0-----------|-0--|                                      |---33--|
|-0-----------|-0--|                                      |---33--|
Gtr II (8 times)
|-------------|    |----------------------------------------------|
|-------------|    |----------------------------------------------|
|---10-0-9-0--|    |----------------------------------------------|
|-------------|    |----------------------------------------------|
|-------------|    |-00-000-01010-101313-13---00-000-01010-10-666-|
|-------------|    |-00-000-01010-101313-13---00-000-01010-10-666-|

Tap to rate this tab
 
# A B C D E F G H I J K L M N O P Q R S T U V W X Y Z