Song name
# A B C D E F G H I J K L M N O P Q R S T U V W X Y Z

Shadows Fall - To Ashes tab

Band - Shadows Fall
Song - To Ashes
Album - Of One Blood

"  = tremolo picking     p = pull off
                        / = slide down to note
h  = hammer on        \ = slide up to note

Riff 1
|--------------------|---------------------------|
|--------------------|---------------------------|
|--------------------|---------------------------|
|-----5-----5-4-5----|---------------------------|  Guitar I & II
|--------------------|-----7-----7-6-------------|
|-000---000----------|-000---000-----8-----------|
  ...   ...            ...   ... 


Riff 2
"Gray Skies..."
|--------------------|---------------------------|
|--------------------|---------------------------|
|--------------------|---------------------------|
|-----9---9---7h9----|-----7---7p5---------------|  Guitar I
|-7-7---7---7--------|-5-5---5-----7-------------|
|--------------------|---------------------------|

|--------------------|---------------------------|
|--------------------|---------------------------|
|-9------------------|-7-------------------------|
|-9------------------|-7-------------------------|  Guitar II
|-7------------------|-5-------------------------|
|--------------------|---------------------------|

Fill 1
|--------------------|---------------------------|
|--------------------|---------------------------|
|-9------------------|---------------------------|
|-9------------------|---------------------------|
|-7------------------|---------------------------|
|--------------------|---------------------------|

Riff 3
Acoustic  or clean           

|-0--0-0-0---3--2-2-0|-1-1-1-0--3--2-2-0---------|
|-1--1-1-1---0--0-0-0|-1-1-1-0--0--0-0-0---------|
|-2--2-2-2---0--0-0-0|-2-2-2-0--0--0-0-0---------|
|-2--2-2-2---0--0-0-0|-3-3-3-0--0--0-0-0---------| x 3 Guitar I
|-0--0-0-0---2--2-2--|-3-3-3----2--2-2-----------|
|------------3--3-3--|-1-1-1----3--3-2-----------|

Riff 4

|-0--0-0-0---3--2-2-0|-1-1-1-0--3--2-2-0---------|
|-1--1-1-1---0--0-0-0|-1-1-1-0--0--0-0-0---------|
|-2--2-2-2---0--0-0-0|-2-2-2-0--0--0-0-0---------|
|-2--2-2-2---0--0-0-0|-3-3-3-0--0--0-0-0---------| Guitar I
|-0--0-0-0---2--2-2--|-3-3-3----2--2-2-----------|
|------------3--3-3--|-1-1-1----3--3-2-----------|

|------------------------------------------------|
|------------------------------------------------|
|------------------------------------------------|
|-10---9-7---9-10---14-12--------10-12-----------|  Guitar II
|--------------------------12-14-----------------|
|------------------------------------------------|

|------------------------------------------------|
|------------------------------------------------|
|------------------------------------------------|
|-10---9-7---9-10--10-9-7----7h9-----------------|  Guitar II still
|-------------------------10---------------------|
|------------------------------------------------|


Fill 2
"After all is lost..."
|-0------------------|---------------------------|
|-1------------------|---------------------------|
|-2------------------|---------------------------|
|-2------------------|---------------------------|
|-0------------------|---------------------------|
|--------------------|---------------------------|

Riff 5

|------------------------------------------------|
|------------------------------------------------|
|------------------------------------------------|
|-10tr--9tr--7tr--9tr--10tr--14tr--12tr----------| Guitar I
|------------------------------------------------|
|------------------------------------------------|

|------------------------------------------------|
|------------------------------------------------|
|------------------------------------------------|
|------------------------------------------------|  Guitar II
|-10tr--9tr--7tr--9tr--10tr--14tr--12tr----------|
|------------------------------------------------|

Riff 6
"I long for your touch..."                       
|------------------------------------------------|
|------------------------------------------------|
|------------------------------------------------|
|-7---7-5---5-3-----3-----5----------------------|  x 2 Guitar I
|-7---7-5---5-3-----3-----5----------------------|
|-5---5-3---3-1-0-0-1-0-0-3----------------------|

|------------------------------------------------|
|------------------------------------------------|
|------------------------------------------------|
|-7---7-10---10-3---3-5--------------------------|  Guitar I
|-7---7-10---10-3---3-5--------------------------|
|-5---5-8----8--1---1-3--------------------------|

|------------------------------------------------|
|------------------------------------------------|
|------------------------------------------------|
|-10---9-7---9-10---14-12--------10-12-----------|  Guitar II
|--------------------------12-14-----------------|
|------------------------------------------------|

|------------------------------------------------|
|------------------------------------------------|
|------------------------------------------------|
|-10---9-7---9-10--10-9-7----7h9-----------------|  Guitar II Still
|-------------------------10---------------------|
|------------------------------------------------|

Riff 7
"Deep inside me..."

|------------------------------------------------|
|------------------------------------------------|
|------------------------------------------------|
|-7-7----------5-5---------3-3---------5-5-----5-|  Guitar I
|-7-7-7---7p5--5-5-5---5p3-3-3-3---3p1-5-5-5-----|
|-5-5---5------3-3---3-----1-1---1-----3-3---3---|

|------------------------------------------------|
|------------------------------------------------|
|------------------------------------------------|
|-7------------5-----------3-3---------5-5-----5-|  Guitar II
|-7------------5-----------3-3-3---3p1-5-5-5-----|
|-5------------3-----------1-1---1-----3-3---3---|

Fill 3

|------------------------------------------------|
|------------------------------------------------|
|------------------------------------------------|
|-10-9-10-12-10-9-10----10-9----9----------------|  Guitar I
|--------------------12------10---10-7-----------|
|------------------------------------------------|

|------------------------------------------------|
|------------------------------------------------|
|-10-9-10-12-10-9-10----10-9----9----------------|
|--------------------12------10---10-9-----------|  Guitar II
|------------------------------------------------|
|------------------------------------------------|

Fill 4

|------------------------------------------------|
|------------------------------------------------|
|------------------------------------------------|
|-3-----3-----3---5------------------------------|  Guitar I & II
|-3-----3-----3---5------------------------------|
|-1-0-0-1-0-0-1-0-3------------------------------|

Riff 8

|------------------------------------------------|
|------------------------------------------------|
|-5----------5-3-----5----------5-3--------------|
|-5----------5-3-----5----------5-3--------------|  Guitar I & II
|-3----------3-1-----3----------3-1--------------|
|--------0-0------0----------0-0-----------------|

|------------------------------------------------|
|------------------------------------------------|
|------------------------------------------------|
|-6----------8-8-----4---4---3-3-3---------------|  Guitars I & II
|-6----------8-8-----4---4---3-3-3---------------|
|-4------0-0-6-6--0--2-0-2---1-1-1---------------|
Tap to rate this tab
# A B C D E F G H I J K L M N O P Q R S T U V W X Y Z