Song name
# A B C D E F G H I J K L M N O P Q R S T U V W X Y Z

Shadows Fall - In Effigy tab

Shadows Fall - In Effigy (intro)

D tuning (D G C F A D)

This is probably more accurate than any other tab I've found. 
The intro and chorus uses a few inverted powerchords and such, but no one else seems to 
have got that down. 
These are just the intro and chorus parts that people seem to be getting wrong 
(they may not be 100% but they are close!):

|---------------------------------------------------------|
|---------------------------------------------------------|
|---------------------------------------------------------|
|-3--2--3--5--5--5--7--7--7-9---7-9---7-9-----------------|
|-1--0--3--5--3--5--7--5--5-7---5-7---5-7-----------------|
|----0--1--3--3--3--5--5------0-----0-----0-0-0-0-0-0-0-0-|
     PM----|     PM----|

(pay attention to the switches between standard/inverted above, important to get the sound right!)

|-----------------------------------------|
|-----------------------------------------|
|-----------------------------------------|
|-7-9---7-9-------------------------------|
|-5-7---5-7-------------------------------|
|-----0-----0-0-0-0-0-0-0-3-3-3-3-1-1-1-1-|


|------------------------------------|
|------------------------------------|
|-------------------7-5---4-5-4------|
|-7-9---7-9---------------------5----| 
|-5-7---5-7--------------------------|
|-----0-----0-0-0-0-----0------------|

(the twiddly bit is just harmonised in 3rds iirc so figure it out :))

|----------------------------------------------------|
|----------------------------------------------------|
|----------------------------------------------------|
|-7-9---7-9------------------------------------------|
|-5-7---5-7------------------------------------------|
|-----0-----0-0-0-0-0-0-0--1--1--1--1--3--3--3--3----|

|---------------------------|-----------------|-------------------------|
|---------------------------|-----------------|-------------------------|
|---------------------------|-----------------|-------------------------|
|-3----3----5--5----7----7--|-7-9---7-9-------|-------------------------|
|-1----3----5--3----7----5--|-5-7---5-7-------|-------------------------|
|-1----1----3--3----5----5--|-----0-----0-0-0-|-0-0-0-0-3-3-3-3-1-1-1-1-|

(again with the inverted chords, mirroring the intro)

The rest is probably how other tabs have got it apart from the break which I might 
post later if I cba to finish
Tap to rate this tab
# A B C D E F G H I J K L M N O P Q R S T U V W X Y Z