Guitaretab - guitar tabs
Song name
# A B C D E F G H I J K L M N O P Q R S T U V W X Y Z

Shadows Fall - Fleshold tab

ALBUM:FEAR WILL DRAG YOU DOWN
SONG:FLESHOLD
TUNING:DROP C (CGCFAD)


* = PALM MUTE
~ = LET NOTE RING
/ = SLIDE
^ = BEND
THIS SONG IS A WICKED SHADOWS FALL SONG ITS 100% CORRECT,PLZ RATE THIS TAB.


    INTRO  (RIFF1)
D-------------------------|
A-------------------------|
F--7/6--------------------|
C-------------------------|
G--5/4---0-4-3-4--1-0-----|  X4
C--------0-4-3-4--1-0-----|
         * * * *  * *

     RIFF2
D------------------------|
A------------------------|
F--4/3-------------------|
C------------------------|
G--2/1--0-4-3-4--1-0-----|  X4
C-------0-4-3-4--1-0-----|
        * * * *  * *

D-------------------------|
A-------------------------|
F--7/6--------------------|
C-------------------------|
G--5/4---0-4-3-4--1-0-----|  X4
C--------0-4-3-4--1-0-----|
         * * * *  * *


    VERSE (RIFF 3)
D------------------|
A------------------|
F------------------|
C------------------|
G------------------|
C--0-00000-000-0---|


   CHORUS
D---------------------|
A---------------------|
F---------------------|
C--7-5~---------------|
G--5-3~--3-5-3-1------| X4
C--------3-5-3-1------|


BACK TO VERSE (RIFF3)
THEN CHORUS X4


    "AHHHHHHHHHHHH!!!...."  (RIFF4)
[ Tab from: http://www.guitaretab.com/s/shadows-fall/43624.html ]
D-------------------------------------|
A-------------------------------------|
F-------------------------------------|
C--5--------------3-------------------|
G--3-4------1-----1-2-------2---------|  X4
C----4--000-1-00----2--00-2---3~------|
        ***   **       **


D-------------------------|
A-------------------------|
F--7/6--------------------|
C-------------------------|
G--5/4---0-4-3-4--1-0-----|  X12
C--------0-4-3-4--1-0-----|
         * * * *  * *


D-----------|
A-----------|
F-----------|
C-----------|
G--00-------|
C--00-------|
   **


   "JUST....LET....ME...DIE!!!!!"
D---------------------------|
A---------------------------|
F---------------------------|
C--4--------3--7------------|
G--2--3--2--1--5------------|
C-----3--2------------------|

   GTR 1 (PLAYED SLOWER)
D-------------------------------------|
A-------------------------------------|
F-------------------------------------|
C--5--------------3-------------------|
G--3-4------1-----1-2-------2---------|  X8
C----4--000-1-00----2--00-2---3~------|
        ***   **       **

(this part would sound better on a 24 fret gtr,but mine only has 22.feel free to go 
if youve got 24.)

   gtr 2
D--/22^--------|
A--------------|
F--------------|
C--------------|
G--------------|
C--------------|


THEN VERSE RIFF
CHORUS RIFF X8
RIFF 3 X4 (OUTRO)


 THATS IT ENJOY.   TABBED BY :TAB_MAN84
Related for Fleshold tab
Advertisement will be closed in 10 seconds