Song name
# A B C D E F G H I J K L M N O P Q R S T U V W X Y Z

Shadows Fall - Somber Angel tab

  First 32 seconds

 D|------------------------------|
 A|------------------------------|
 F|-------------------2---3-2----|
 C|-----2-3-2-0-----3---3-----3--|
 G|---0---------3-1-------------1|     ___
 C|-0----------------------------|
                                        2X
 D|------------------------------|     ___
 A|------------------------------|
 F|------------------------------|
 C|-----2-3-2-0---3~-------------|
 G|---0---------3-1~-------------|
 C|-0----------------------------|

                             hp
 D|------------------------1-010---|
 A|----------------------3-------3-|  ___
 F|--------0-----0-----2-----------|  
 C|------0-----0---0---------------|   2X
 G|-0~-1---1/3---------------------|  ___
 C|-0~---------------0-------------|
Tap to rate this tab
# A B C D E F G H I J K L M N O P Q R S T U V W X Y Z