Song name
# A B C D E F G H I J K L M N O P Q R S T U V W X Y Z

Shadows Fall - Stillness tab

Help us improve GuitareTab! Take a short survey!
there....ive got a chunk of the song up...i will sort out the finer riffs and have it up
nice one day. if i can just edit a song i have already submitted, someone tell me
aswell, id like to know the average difficulty of this song for the people who play it. 
a comment and tell me how it goes for you. ;)

D|-----------------------------------------------------------------|
A|-----------------------------------------------------------------|
F|-----------------------------------------------------------------|
C|------------------------------------------------------3----------|
G|-5-----5-----2--5-----5-----2---4/5\4-2---------4/5---1----------|
D|-3-0-0-2-0-0-0--3-0-0-2-0-0-0---2/3\2-0-0-0-0-0-2/3-----0-0-0-0--|
     . .   . .      . .   . .             . . . .         . . . .

D|-----------------------------------------------------------------|
A|-----------------------------------------------------------------|
F|-----------------------------------------------------------------|
C|-----------------------------------------------------------------|
G|-5-----5-----2--5-----5-----2---4/5\4-2-----------------1---3*---|
D|-3-0-0-2-0-0-0--3-0-0-2-0-0-0---2/3\2-0-0-0-0-0-0-0-1-3---3------|
     . .   . .      . .   . .             . . . . . . . .   .


D|-----------------------------------------------------------------|
A|-----------------------------------------------------------------|
F|-----------------------------------------------------------------|
C|-4-----2-----0-----------------4-----2-----0---------------------|
G|-2-----2-----0--5-----5-----5--2-----2-----0-----------5-5-------|
D|---0-0---0-0----3-0-0-2-0-0-2----0-0---0-0----000-000--3-2-------|
     . .   . .      . .   . .      . .   . .    ... ...

D|-----------------------------------------------------------------|
A|-----------------------------------------------------------------|
F|-----------------------------------------------------------------|
C|-4-----2-----0-----------------4-----2-----0---------------------|
G|-2-----2-----0--5-----5-----5--2-----2-----0----------5-5--------|
D|---0-0---0-0----3-0-0-2-0-0-2----0-0---0-0----000-000-3-2--------|
     . .   . .      . .   . .      . .   . .    ... ...

D|-----------------------------------------------------------------|
A|-----------------------------------------------------------------|
F|-----------------------------------------------------------------|
C|---------------5\4--2/3------------------------------------------|
G|-2-----------------------2\3--5/7-------7-7----------------------|
D|-0-0-0-0-0-0-0----------------3/5-5-5-5-5-5-7\5-0-2/3-2----------|
   . . . . . . .                    . . .
D|-----------------------------------------------------------------|
A|-----------------------------------------------------------------|
F|----------------------------------------7-7~---------------------|
C|---------------5\4--2/3-----------------7-7~---------------------|
G|-2-----------------------2\3--5/7--------------------------------|
D|-0-0-0-0-0-0-0----------------3/5-5-5-5--------------------------|
     . . . . . .                    . . .

D|-----------------------------------------------------------------|
A|-----------------------------------------------------------------|
F|-----------------------------------------------------------------|
C|-----------------------------------------6-----6-------6---7-----|
G|-5/7------------5/8--------------8\7-------------7-------7-------|
D|-3/5-0-000-000--3/6-0-000-000--0-----0-9---666-----666-----------|
       . ... ...      . ... ...  .     . .   ...     ...

D|-----------------------------------------------------------------|
A|-----------------------------------------------------------------|
F|-----------------------------------------------------------------|
C|-----------------------------------------6-----6-------6---10----|
G|-5/7------------5/8--------------8\7-------------7-------7-------|
D|-3/5-0-000-000--3/6-0-000-000--0-----0-9---666-----666-----------|
       . ... ...      . ... ...  .     . .   ...     ...

D|-----------------------------------------------------------------|
A|-----------------------------------------------------------------|
F|-----------------------------------------------------------------|
C|-----------------------------------------------------------------|
G|-------10\9---3/5---10-9---7-------------------------------------|
D|-0-0-0------0-----0------0---------------------------------------|
   . . .      .     .      .
Related for Stillness tab