Song name
# A B C D E F G H I J K L M N O P Q R S T U V W X Y Z

Shadows Fall - Will To Rebuild tab

Band/Artist - Shadows Fall
Song/Title - Will To Rebuild
Album - Fallout From The War - Out 2 Days Ago - June 13th 2006 -
Transcribed By - Killswitch_mike
Tuning;

Guitar I - Matthew Bachand - Dropped C - C-G-C-F-A-D - Low To High
Guitar II - Jonathon Donais - Dropped C - C-G-C-F-A-D - Low To High


Version 1.0 - 15/06/06

Introduction/Verse;

 - Guitar I & II -

D||----------------------------------||---------------||
A||----------------------------------||---------------|| Repeat The First
F||----------------------------------||---------------|| Bar 3 Times Then
C||--1p0-------1p0-------6h5--3h5----||---0~---1~---3-|| Finish It Off With
G||--1p0-------1p0-------6h5--3h5----||---0~---1~---3-|| The End Bar.
C||--1p0--000--1p0--000--6h5--3h5----||---0~---1~---3-||
          ...       ...         

Repeat all of this 4 times but, theres a variation in the last bar, it goes like this...

D||--------------------------||
A||--------------------------||
F||--------------------------||
C||---0---1---3---6---8---9--||
G||---0---1---3---6---8---9--||
C||---0---1---3---6---8---9--||

Interlude;

Guitar I & II

D||--------||
A||--------||
F||--------||
C||--0--0--||
G||--0--0--||
C||--0--0--||

Guitar I

D||-------------------------------------||
A||-------------------------------------||
F||----------------4p0------------------||
C||---00-1p0-4p0-0-4p0-0-4p0-3h2--------||
G||---00-1p0-4p0-0-2p0-0-4p0-3h2-0h1----||
C||---00-1p0-4p0-0-----0-4p0-3h2-0h1----||


Guitar II 

- Rest -


Then The Same Happens But Guitar Parts Switch, See The Speaker Change.


Thats all i have, sorry if it isnt enough, Please rate and comment it.

Cheers
Mike




Tap to rate this tab
 
# A B C D E F G H I J K L M N O P Q R S T U V W X Y Z