Song name
# A B C D E F G H I J K L M N O P Q R S T U V W X Y Z

Shadows Fall - Dread Uprising tab

Band : Shadows Fall                 
Song : Dread Uprising 
Album : Threads of Life
                                  Tuning :
Tabbed by : James Sutton          Guitar 1 : DADGBE
Email : jas11790@yahoo.com        Guitar 2 : DADGBE


  
yeah, i tabbed this shit perfect and some dumbass thinks 
of it as only a 1 star. so who ever rated it that e-mail 
me why and if you have no reason why then that douche can
go figure it out on their own and can go f**k themself 
because so far its PERFECT !!!!!!!!!!!!!!!!!!!!!!!!!!!


 Guitar 1 (1:57)
  
e|--14-11t-13-11t-14-11t-16-11t-14-11t-13-11t-14-11t-13-11t-14-11t-----------|
B|---------------------------------------------------------------------------|
G|---------------------------------------------------------------------------|
D|---------------------------------------------------------------------------|
A|---------------------------------------------------------------------------|
D|---------------------------------------------------------------------------|

  Guitar 1 

e|--13-12-10--13-12-10--19-18-16--18-----------------------------------------|
B|---------------------------------------------------------------------------|
G|---------------------------------------------------------------------------|
D|---------------------------------------------------------------------------|
A|---------------------------------------------------------------------------|
D|--------------------------------------------------------------------------
-|

  Guitar 1 

e|--14-11t-13-11t-14-11t-16-11t-14-11t-13-11t-14-11t-13-11t-14-11t-----------|
B|---------------------------------------------------------------------------|
G|---------------------------------------------------------------------------|
D|---------------------------------------------------------------------------|
A|---------------------------------------------------------------------------|
D|---------------------------------------------------------------------------|

  Guitar 1 

e|--19-18-16-----------------------------------------------------------------|
B|-----------19-18-16--------15\---------------------------------------------|
G|--------------------19-18--------------------------------------------------|
D|---------------------------------------------------------------------------|
A|---------------------------------------------------------------------------|
D|---------------------------------------------------------------------------|

    Guitar 1 (2:07)

e|--14-11t-13-11t-14-11t-16-11t-14-11t-13-11t-14-11t-13-11t-14-11t-----------|
B|---------------------------------------------------------------------------|
G|---------------------------------------------------------------------------|
D|---------------------------------------------------------------------------|
A|---------------------------------------------------------------------------|
D|---------------------------------------------------------------------------|

   Guitar 2 (2:07) HARMONY !!!

e|--18-14t-16-14t-18-14t-19-14t-18-14t-16-14t-18-14t-16-14t-18-14t-----------|
B|---------------------------------------------------------------------------|
G|---------------------------------------------------------------------------|
D|---------------------------------------------------------------------------|
A|---------------------------------------------------------------------------|
D|---------------------------------------------------------------------------|

   Guitar 1

e|--13-12-10--13-12-10--19-18-16--18-----------------------------------------|
B|---------------------------------------------------------------------------|
G|---------------------------------------------------------------------------|
D|---------------------------------------------------------------------------|
A|---------------------------------------------------------------------------|
D|---------------------------------------------------------------------------|

  Guitar 1

e|--14-11t-13-11t-14-11t-16-11t-14-11t-13-11t-14-11t-13-11t-14-11t-----------|
B|---------------------------------------------------------------------------|
G|---------------------------------------------------------------------------|
D|---------------------------------------------------------------------------|
A|---------------------------------------------------------------------------|
D|---------------------------------------------------------------------------|

 Guitar 2 (2:12) HARMONY !!!

e|--18-14t-16-14t-18-14t-19-14t-18-14t-16-14t-18-14t-16-14t-18-14t-----------|
B|---------------------------------------------------------------------------|
G|---------------------------------------------------------------------------|
D|---------------------------------------------------------------------------|
A|---------------------------------------------------------------------------|
D|---------------------------------------------------------------------------|

  Guitar 1

e|--19-18-16-----------------------------------------------------------------|
B|-----------19-18-16--------15\---------------------------------------------|
G|--------------------19-18--------------------------------------------------|
D|---------------------------------------------------------------------------|
A|---------------------------------------------------------------------------|
D|---------------------------------------------------------------------------|

e|---------------------------------------------------------------------------|
B|-------------------------------------*10~~~~~------------------------------|
G|--13b15~~~----*8---10----10s13---7-8---------------------------------------|
D|-----------*8----*8----8---------------------------------------------------|
A|---------------------------------------------------------------------------|
D|---------------------------------------------------------------------------|

    alright, i only have the first half of this kick ass solo
but i am 100% sure its exactly right and i'll have the rest up 
as soon as i finish it. til then, have fun with this.
 



| t  trem. pick
| *  pinch harmonic
| b  bend
| ~  vibrato
| \  slide down
| s  slide
Tap to rate this tab
# A B C D E F G H I J K L M N O P Q R S T U V W X Y Z