Song name
# A B C D E F G H I J K L M N O P Q R S T U V W X Y Z

Shadows Fall - Great Collapse tab

Tabbed by : James Sutton
E-mail : jas11790@yahoo.com

Band : Shadows Fall          Tuning :
Song : The Great Collapse    Guitars 1 & 2 standard
Album : Threads of Life


  Guitar 1

e|-----------------------------------------------------------------------------|
B|---0h1--------1p0-----------0---0----------0-------0h1-------1p0-------------|
G|---2----------------2-------0---0----------0---0---2--------------2-----0----|
D|---2------2---------------------2--------------0---2--------------------0----|
A|---0-------------------0--------2------------------0-----0-------------------|
E|--------------------------------0------0-------------------------------------|

  Guitar 1

e|---------------------------------------------------------------------------|
B|--------------------------3---0--------------------------------------------|
G|------------0-------------0---0--------------------------------------------|
D|---------------0----2--2------0--------------------------------------------|
A|---0h2---2----------3------------------------------------------------------|
E|---0-----------------------------------------------------------------------|

  Guitar 1

e|---------------------------------------------------------------------------|
B|---0h1--------1p0-----------0---0----------0-------------------------------|
G|---2----------------2-------0---0----------0-------------------------------|
D|---2-----2----------------------2------2-------0---------------------------|
A|---0-----0-------------0--------2------2-----------------------------------|
E|--------------------------------0------0-----------------------------------|

  Guitar 1

e|---------------------------------------------------------------------------|
B|--------------3------------------------------3-----------------------------|
G|-----------0-----0------------------------0-----0--------------------------|
D|-------0-------------0-------0--------0------------0-------0---------------|
A|---2----------------------------------0----------------0-------------------|
E|---3---------------------3-------2---------------------2-------------------|

  
  Guitar 2

e|---------------------------------------------------------------------------|
B|-------------3-----3-------3--------------------3-----3-------3------------|
G|-------------0-----0-------0--------------------0-----0-------0------------|
D|---0-----0---0-----0---0---0---0-----0------0---0-----0---0---0------------|
A|---2-----2-------------2-------0-----0------0-------------0----------------|
E|---3-----3-------------3-------2-----2------2-------------2----------------|


  So do this entire thing twice and thatll be at
about :35 into the song and i\'ll post the rest as
soon as i finish it.

| p  pull off
| h  hammer on
Tap to rate this tab
# A B C D E F G H I J K L M N O P Q R S T U V W X Y Z