Song name
# A B C D E F G H I J K L M N O P Q R S T U V W X Y Z

Shadows - Riders In The Sky tab

This took me ages, so it better be right!

E--------------------------------------------------------|
B--------------------15----13---12-----------------------|
G---14-----12---14------------------12-12---14-----------|
D--------------------------------------------------------|
A--------------------------------------------------------|
E--------------------------------------------------------|

E------------------------12-----15-----------------------|
B--------------15----13----------------------------------|
G-----12---14-----------------------14(Let note ring on)-|
D--------------------------------------------------------|
A--------------------------------------------------------|
E--------------------------------------------------------|

Do whole thing twice then go into the actual song more coming soon!
Tap to rate this tab
 
# A B C D E F G H I J K L M N O P Q R S T U V W X Y Z