Song name
# A B C D E F G H I J K L M N O P Q R S T U V W X Y Z

Shadows - Warlord tab

SHADOWS:THE WARLORD   (1965)


e----------------------------|
B----------------------------|
G----------------------------|
D----------------------------|
A--2-3--3-5-6--5-3--5--2-3---|
E----------------------------|


e-----------------------------|
B-----------------------------|
G-----------------------------|
D-----------------------------|
A--2-3--3-5-6--5-3-5--2-3-----|
E-----------------------------|

e-------------------------------|
B-------------------------------|
G-------------------------------|
D--0-2--2-4-2-4-6--4-2--1-2-----|
A---------------------------4-6-|
E-------------------------------|


e-----------------------------|
B-----------------------------|
G-----------------------------|
D-----------------------------|
A--2-3--3-5-6--5-3-5--2-3-----|
E-----------------------------|

e-------------------------------|
B-------------------------------|
G-------------------------------|
D--0-2--2-4-2-4-6--4-2--1-2-----|
A---------------------------4-6-|
E-------------------------------|

e-----------------------------|
B-----------------------------|
G-----------------------------|
D-----------------------------|
A--2-3--3-5-6--5-3-5--2-3-----|
E-----------------------------|

e--------------------------------------------------------------|
B--9--7----------9--7-9-7---------7/9-9b-9-7-------------------|
G-------9-8-9-------------9-8-9--------------9-6-8-9b-9-7-6----|
D--------------------------------------------------------------|
A--------------------------------------------------------------|
E--------------------------------------------------------------|


e----------------------------|
B----------------------------|
G----------------------------|
D----------------------------|
A--2-3--3-5-6--5-3--5--2-3---|
E----------------------------|


e-----------------------------------|
B-----------------------------------|
G-----------------------------------|
D-----------------------------------|
A-----------------------------------|
E-----------------------------------|


e----------------------------|
B----------------------------|
G----------------------------|
D----------------------------|
A--8-9--9-11-12-11-9-11--8-9-|
E----------------------------|


e-----------------------------------|
B-----------------------------------|
G-----------------------------------|
D-----------------------------------|
A--6-8--8-10-8-10-12-10-8-7-8-------|
E-----------------------------10-12-|


e----------------------------|
B----------------------------|
G----------------------------|
D----------------------------|
A--8-9--9-11-12-11-9-11--8-9-|
E----------------------------|


e-----------------------------------|
B-----------------------------------|
G-----------------------------------|
D-----------------------------------|
A--6-8--8-10-8-10-12-10-8-7-8-------|
E-----------------------------10-12-|


e--------------------------------------------------------------|
B--9--7----------9--7-9-7---------7/9-9b-9-7-------------------|
G-------9-8-9-------------9-8-9--------------9-6-8-9b-9-7-6----|
D--------------------------------------------------------------|
A--------------------------------------------------------------|
E--------------------------------------------------------------|


e----------------------------|
B----------------------------|
G----------------------------|
D----------------------------|
A--2-3--3-5-6--5-3--5--2-3---|
E----------------------------|
Tap to rate this tab
 
# A B C D E F G H I J K L M N O P Q R S T U V W X Y Z