Song name
# A B C D E F G H I J K L M N O P Q R S T U V W X Y Z

Shadows - Wipeout tab

wait for the bass to come in. There's only 1 or 2 bars. This is the main riff and it's 
first tab so bare with me. Anyway I think it's 99% right.

key: /=slide

--------------------------|
--------------------------|
--------------------------|
-----8-9-10-10-8-10-10-10-|
--10----------------------|  x4
--------------------------|


--------------------------|
--------------------------|
-----8-9-10-10-8-10-10-10-|
--10----------------------|   x2
--------------------------|
--------------------------|


--------------------------|
--------------------------|
--------------------------|
-----8-9-10-10-8-10-10-10-|
--10----------------------|   x2
--------------------------|


-------------------------------------|
-------------------------------------|
-----10-11-12-12-10----12/10-10-8----|
--12----------------12------------10-|
-------------------------------------|
-------------------------------------|

--------------------------|
--------------------------|
--------------------------|
-----8-9-10-10-8-10-10-10-|
--10----------------------|
--------------------------|

---------------------------|
---------------------------|
---------------------------|
-----8-9-------------------|
--10--------10-10-10-10-10-|
---------------------------|
Tap to rate this tab
 
# A B C D E F G H I J K L M N O P Q R S T U V W X Y Z