Song name
# A B C D E F G H I J K L M N O P Q R S T U V W X Y Z

Shadows - Memory tab

Memory-Shadows

E:  --------------------------------------------------------------------|
H:  10-10---9-10-12-10/7----10-10---9-10-12-10--------------------------|
G:  -------------------------------------------9-11-11---7-9-9/11/9-7-6-|
D:  --------------------------------------------------------------------|
A:  --------------------------------------------------------------------|
E:  --------------------------------------------------------------------|

E:  --------------------------------------------------------------------|
H:  ----------------7-9-9/10/9-7---------5-5----------------------------|
G:  -9-9-9--4-6-7-9--------------9---6----------2-2---------------------|
D:  -----------------------------------7------4-------------------------|
A:  --------------------------------------------------------------------|
E:  --------------------------------------------------------------------|
Tap to rate this tab
 
# A B C D E F G H I J K L M N O P Q R S T U V W X Y Z