Song name
# A B C D E F G H I J K L M N O P Q R S T U V W X Y Z

Shadows - Apache chords

Apache 

The Shadows

Tabbed by Minimanpacker

b - Bend
/ - Slide Up
\ - Slide Down

   Am		    D
e|-0------------2-----5-3-0-|
B|-1---1-3b4b3--3---1-------|
G|-2-2----------2-2---------| x 2 
D|-2------------0-----------|
A|-0------------------------|
E|--------------------------|

e|------------------------------------------------------------------|
B|------------------------------------------------------------------|
G|---2----2--------------2----2--------------7----7--------------2--|
D|-2----2---4-2-0-2----2----2---4-2-0-2----7----7---9-7-5-7----2----|
A|------------------------------------------------------------------|
E|------------------------------------------------------------------|

e|------------|
B|------------|
G|--2---------|
D|2---4-2-0-2-|
A|------------|
E|------------|

e|---------------------------------------------|
B|---------------------------------------------|
G|---------------------------------------------|
D|--333-333-333-333-2--------333-333-333-333-2-|
A|-3---3---3---3--------0---3---3---3---3------|
E|---------------------------------------------|

e|----------------------------------------------3-----5-7~----------|
B|-----1-0-0-1-3/5-3\1----------1-0-0-1-3---3/5---5/7---9~-----1-0-0|
G|---2-----------------2------2-----------0------------------2------|
D|-3------------------------3------------------------------3--------|
A|------------------------------------------------------------------|
E|------------------------------------------------------------------|

e|-------------|
B|-1-3/5-3\1---|
G|-----------2-|
D|-------------|
A|-------------|
E|-------------|

e|---------------------------------------------|
B|---------------------------------------------|
G|---------------------------------------------|
D|--333-333-333-333-2--------333-333-333-333-2-|
A|-3---3---3---3--------0---3---3---3---3------|
E|---------------------------------------------|

e|---------------------------------------|
B|---------------------------------------|
G|--2-2-2-2-----2-2-----------------2----| x 2
D|-2--------2-2-----4-4-4-4-2-2-0-0----2-|
A|---------------------------------------|
E|---------------------------------------|

e|---------------------------------------|
B|---------------------------------------|
G|---7-7-7-7-----7-7-----------------7---|
D|-7---------7-7-----9-9-9-9-7-7-5-5---7-|
A|---------------------------------------|
E|---------------------------------------|
							
				         /rake\		
e|--------------------------------------------0-|
B|-------------------------------------------2--|
G|--2-2-2-2-----2-2-----------------2-------2---|
D|-2--------2-2-----4-4-4-4-2-2-0-0----2---2----|
A|----------------------------------------0-----|
E|----------------------------------------------|

e|------------------------------------------------------------------|
B|-----1-0-0-1-3/5-3\1----------1-0-0-1--------------------1-0-0-3/5|
G|---2-----------------2------2------------0-00001010----2----------|
D|-3------------------------3--------------------------3------------|
A|------------------------------------------------------------------|
E|------------------------------------------------------------------|

e|------|
B|3\1---|
G|----2-|
D|------|
A|------|
E|------|

e|-----------------------------------------------|
B|-----------------------------------------------|
G|-----------------------------------------------|
D|--333-333-333-333-2----------------------------|
A|-3---3---3---3------0------------------88888-7-|
E|----------------------11111/55555/88888--------|

   Am		    D
e|-0------------2-----5-3-0-|
B|-1---1-3b4b3--3---1-------|
G|-2-2----------2-2---------| Repeat Till Fade
D|-2------------0-----------|
A|-0------------------------|
E|--------------------------|

This should be almost 100% correct! Enjoy!
Tap to rate this tab
# A B C D E F G H I J K L M N O P Q R S T U V W X Y Z