Song name
# A B C D E F G H I J K L M N O P Q R S T U V W X Y Z

Shadows - Fbi tab

-----------------------------------------------------------5-3-0-------0--0---|
-------1--3->-5----3--1--------1--3->-5------3--1------1---------3-1-3------3-|
----2-----------2-------2----2------------2-------2--2------------------------|
------------------------------------------------------------------------------|
------------------------------------------------------------------------------|
------------------------------------------------------------------------------|

--------------0------0------0-------------------------------------------------|
-1------1----3-3-1--3-3-1--3-3-1------0-2-------------------------------------|
----2-2--------------------------2--2-----------------------------------------|
------------------------------------------------------------------------------|
------------------------------------------------------------------------------|
------------------------------------------------------------------------------|
> = Slide
Tap to rate this tab
 
# A B C D E F G H I J K L M N O P Q R S T U V W X Y Z