Song name
# A B C D E F G H I J K L M N O P Q R S T U V W X Y Z

Shadows - Round And Round tab

Standard Tuning
Light Distortion

Main Riff:
|-----------------|
|-1---------------|
|--2-0------------|
|------2-4-5^-4-2-|
|-----------------|
|-----------------|

Secondary Riff:
|-------------------------------|
|-------------------------------|
|-------------------------------|
|------------0------------------|
|-----0--0-3---3-0-----0------0-|
|-0-3--------------0-3----0-3---|

Tertiary Riff:
|---------------------------------------------------------------------------|
|---------------------------------------------------------------------------|
|-7-7-5-5-4-4-2-2-0---------6-6-4-4-3-3-1-1---------4-4-2-2-0-0-------------|
|-------------------0-2-0-------------------4---1---------------4-4-2-----0-|
|---------------------------------------------4---4-------------------2-4---|
|---------------------------------------------------------------------------|

Interlude: (Palm Muted)
|-------------------------------------------|
|-------------------------------------------|
|-------------------------------------------|
|-------------------------------------------|
|-------------------------------------------|
|-0-3-3-0-3-3-0-3-3-0-3-3-0-3-3-0-3-3-0-3-3-|

Riff Orders:
-Primary Riff---X3
-Secondary Riff-X2
-Tertiary Riff--X1
-Interlude------X1
-Secondary Riff-X2
-Primary Riff---X3
-Secondary Riff-X2
-Tertiary Riff--X1
-Interlude------X1
-Secondary Riff-X2
-Primary Riff---X3

It's probably not all quite right, but it is fairly close
Tap to rate this tab
# A B C D E F G H I J K L M N O P Q R S T U V W X Y Z