Guitaretab - guitar tabs
Song name
# A B C D E F G H I J K L M N O P Q R S T U V W X Y Z

Shadows - Shindig tab

The Shadows - Shindig

Legend:
→ = slide
[x-y] = Hammer-on, Pull-off

   Intro              Part 1
E-------------|-------------------------------------------------|
B-1→2-1→2-1→2-|----------5-5---5-5-------------------5-5---5-5--|
G-1→2-1→2-1→2-|-----2-4-[4-6]-[4-6]-4-----------2-4-[4-6]-[4-6]-|
D-1→2-1→2-1→2-|-2-4-------------------7-4-2-2-4-----------------|
A-------------|-------------------------------------------------|
E-------------|-------------------------------------------------|



E---------------------------------------------------------------|
B----------5-5---5-5----------------------1→2-1→2---------------|
G-----2-4-[4-6]-[4-6]-4-----2-[4-5]-4-2---1→2-1→2-2-[4-5]-4-2---|
D-2-4-------------------7-4-------------4---------------------4-|
A---------------------------------------------------------------|
E---------------------------------------------------------------|



E--------|-----|-------------------------------------------------|
B-1→2-1→2|Part-|-------------------------------------------------|
G-1→2-1→2|--1--|-------------------------------------------------|
D--------|again|-------------------------------------------------|
A--------|-----|-------------------------------------------------|
E--------|-----|-[0-2]-2-2-0-2-[0-2]-2-2-0-2-[0-2]-2-2-0-2-[0-2]-|



E-------------------------------------------------------------------|
B-------------------------------------------------------------------|
G-----------------------------------------------------2-----2-------|
D-------4-2----------------------4-2---------4-2--2-4---4→7---4-2-4-|
A---0-4-----4-2-0-0-2→4-4----0-4-----4-4-2-2------------------------|
E-2------------------------2----------------------------------------|


[ Tab from: http://www.guitaretab.com/s/shadows/58747.html ]
E-----------------------------------------|
B-----------------------------------------|
G-----2-----2-----------2-----2-----------|
D-------4→7---4-2-4-------4→7---4-2-4-----|
A-0-0---------------0-0---------------2-2-|
E-----------------------------------------|



E--------------------------------------|-----|
B--------------------------------------|Part-|
G--------------------------------------|--1--|
D-9--9--9--7--6-6-6-4--6-6-4-4-2-2-2---|again|
A-11-11-11-9--7-7-7-5--7-7-5-5-4-4-4-2-|-----|
E--------------------------------------|-----|


 
Solo
E--5-5---7-7--7--10-10---9-------5--5-5---7-7--7--10-10---9--|
B-[5-7]-[7-8]-8[10-12]--10--10--5-[5-7][7-8]-8-[10-12]--10-|
G----------------------------9-------------------------------|
D------------------------------------------------------------|
A------------------------------------------------------------|
E------------------------------------------------------------|



E-5--5-5---5--7-7---9--10-12-10-9--10-12-14-12-10-9--|
B-5-[5-7]--7[7-9]--10-12-14-12-10-12-14-15-14-12-10-|
G----------------------------------------------------|
D----------------------------------------------------|
A----------------------------------------------------|
E----------------------------------------------------|


    E (chord)                E (chord)
E----------12---- |-------|----------12----|-------|
B-------12--------|-------|-------12-------|-------|
G----13-------x6--|-------|----13-------x6-|-------|
D-14--------------|-------|-14-------------|-------|
A-----------------|-------|----------------|-------|
E-----------------|-0-0-0-|----------------|-0-0-0-|



E-Play--|-----------------|
B-Part--|-End by playing--|
G--1----|-the intro again-|
D-twice-|-----------------|
A-------|-----------------|
E-------|-----------------|


Hope you like it!

Related for Shindig tab