Song name
# A B C D E F G H I J K L M N O P Q R S T U V W X Y Z

Shadowy Men On A Shadowy Planet - They Dont Call Them Chihuahuas Anymore tab

THEY DON'T CALL THEM CHIHUAHUAS ANYMORE
by: Shadowy Men on a Shadowy Planet
LP: Sport Fishin' - the lure of the bait, the luck of the hook


This is my first crack at this, so I hope it works out.
?'s or comments can be sent to wanker@beer.com

- Steve Bogie


Part 1 - play twice
E|--------------------------------------------------------------|
B|---------------5--6-/8-\6--5-----5--------------------------5-|
G|-----7--7-p5-7----------------7-----6--6----------7--7-p5-7---|
D|--7------------------------------------7-------7--------------|
A|--------------------------------------------------------------|
E|--------------------------------------------------------------|

E|----------------------5----------------6----6--5-------------|
B|-6-/8-\6--5-----5-----5---------------6--6--------5----------|
G|-------------7-----6---------------7-----------------6-------|
D|-----------------------------7-8-----------------------7-7-7-|
A|-------------------------------------------------------------|
E|-------------------------------------------------------------|

E|---------6--8--6h8-5--5--/12-12h13-12-----------6----6-5-----|
B|-------6---------------------------------------6--6-------5--|
G|----7---------------------------------------7----------------|
D|-8-------------------------------------7-8-------------------|
A|-------------------------------------------------------------|
E|-------------------------------------------------------------|


E|--------------------------------------------------------------|
B|--------------------------------------6--5--------------------|
G|-6------------------------------6-----------------------------|
D|---7--7--7-5--5--5-5--7--8-7-----7----------------------------|
A|--------------------------------------------------------------|
E|--------------------------------------------------------------|


after 2X part 1 strum once:
E|-5--5-----5--5----5--5--4-5----------------------------------|
B|-6--6-----6--6----6--6--6-6----------------------------------|
G|-7--7-----7--7----7--7--7-7----------------------------------|
D|-7--7-----7--7----7--7--7-7----------------------------------|
A|-------------------------------------------------------------|
E|-------------------------------------------------------------|

part 2 - play once:
E|--------------------------------------------------------------|
B|--------------------------------------------------------------|
G|-----------------------------------7--------------------------|
D|-7-7-7-8-7--5---7-7-7-8-7--5---7-7---7-8-7-5----5-5-/3-\5-5-5-|
A|--------------------------------------------------------------|
E|--------------------------------------------------------------|

E|--------------------------------------------------------------|
B|--------------------------------------------------------------|
G|-7-5-3-p0--0--0-0---------------------------------------------|
D|------------------0-0-0-0--3-4--5----7-7-7-8-7--5---7-7-7-8-7-|
A|--------------------------------------------------------------|
E|--------------------------------------------------------------|

E|--------------------------------------------------------------|
B|--------------------------------------------------------------|
G|---------7----------------------------------------------------|
D|-5---7-7---7-8-7-5----5-5-/3-\5-5-5--7-5-3-p0-0--0-0--7h8-7-5-|
A|--------------------------------------------------------------|
E|--------------------------------------------------------------|

E|-------------------------------------------------------------|
B|-------------------------------------------------------------|
G|-------------------------------------------------------------|
D|-5-----------------------------------------------------------|
A|----8p7-5--5-5--5-5------------------------------------------|
E|-------------------------------------------------------------|


next - do that strumming thing, then move up a fret and repeat.
Play part one again, but also up one fret, then do the strum
thing, then up another fret and the song ends.  Have fun!
Tap to rate this tab
# A B C D E F G H I J K L M N O P Q R S T U V W X Y Z