Song name
# A B C D E F G H I J K L M N O P Q R S T U V W X Y Z

Shady View Terrace - I Hope Youre Alone tab

                 I Hope You're Alone - Shady View Terrace                  
http://www.myspace.com/shadyviewterrace  http://www.last.fm/music/Shady+View+Terrace
Tabbed by:kamdude
Email:triathlete_max@hotmail.com

Tuning:Standard

e|---------------------------------------------------------------------------|
B|---------------------------------------------------------------------------|
G|---------------------------------------------------------------------------|
D|---------------------------------------------------------------------------|
A|--------------------------------------2---2--2---3---3-3-------------------|
E|-0-0-0-0-0-0-0-0-2/3-3-3-3-5-3-2-3-0-0-0-0-0--0-0-0-0-0--------------------|

e|---------------------------------------------------------------------------|
B|---------------------------------------------------------------------------|
G|---------------------------------------------------------------------------|
D|---------------------------------------------------------------------------|
A|--------------------------------------2---2-2---3--------------------------|
E|-0-0-0-0-0-0-0-0-2/3-3-3-3-5-3-2-3-0-0-0-0-0--0--3--0----------------------|
Tap to rate this tab
 
# A B C D E F G H I J K L M N O P Q R S T U V W X Y Z