Song name
# A B C D E F G H I J K L M N O P Q R S T U V W X Y Z

Shaggy - Hey Sexy Lady tab

Shaggy - Hey Sexy Lady
-====================-
Song      - Sexy Lady
Artist    - Shaggy
Tabbed By - Clayton Botha
E-Mail    - theno69@hotmail.com

Tune your guitar slightly up from normal (about a quarter step)

Intro - Spanish Guitar Bit
-========================-
   A
e|-5-5-5-------------------------------------------5/15\5-|
B|-5-5-5--5h6p5p3-5~~~-6-8-6-5-3--------------------------|
G|-6-6-6-------------------------5p4-4h5p4p2-4------------|
D|-7-7-7---------------------------------------6-7--------|
A|-7-7-7--------------------------------------------------|
E|-5-5-5--------------------------------------------------|

Verse
-===-
   A
e|-5-5-5--5~~~---5~~~-5-7-8p7-8p7p5-6~~~---6~~~-6-7-8p7-8p7p6-5~~~-|
B|-5-5-5-------5-------------------------6-------------------------|
G|-6-6-6-----------------------------------------------------------|
D|-7-7-7-----------------------------------------------------------|
A|-7-7-7-----------------------------------------------------------|
E|-5-5-5-----------------------------------------------------------|
Tap to rate this tab
# A B C D E F G H I J K L M N O P Q R S T U V W X Y Z