Song name
# A B C D E F G H I J K L M N O P Q R S T U V W X Y Z

Shaggy - Hope tab

-------------------------------------------------------------------------------
			     HOPE - Shaggy
-------------------------------------------------------------------------------

By: Psychobassist

E|-----------------------------------------------------|
B|-----------------------------------------------------|
G|-----------------------------------------------------|
D|--------3--6----4-3-----4-3-4-3--------3--6---4-3----|
A|--4--6--------------4------------4--6--------------4-|
E|-----------------------------------------------------|


E|-----------------------------------------------------|
B|-----------------------------------------------------|
G|---6-6-5-5-3-3---------------------------------------|
D|---------------6-6-3---------------------------------|
A|---------------------4-------------------------------|
E|-----------------------------------------------------|
Tap to rate this tab
 
# A B C D E F G H I J K L M N O P Q R S T U V W X Y Z