Song name
# A B C D E F G H I J K L M N O P Q R S T U V W X Y Z

Shaggy - I Like To Move It tab

e|-------------|---------------|
B|-------------|---------------|
G|-------------|---------------|
D|-------------|-5----0-3-0-5--|
A|-3---3---3--6|---6-----------|
E|-------------|---------------|


e|-------------|---------------|
B|-------------|---------------|
G|-------------|---------------|
D|-------------|-5----0-3-0-5--|
A|-3---3---3--6|---6-----------|
E|-------------|---------------|

Repeats for the entire song.

Email me at kakashihatake0110@hotmail.com
Tap to rate this tab
 
# A B C D E F G H I J K L M N O P Q R S T U V W X Y Z