Song name
# A B C D E F G H I J K L M N O P Q R S T U V W X Y Z

Shai Hulud - Two And Twenty Misfortunes tab

    e|------------------------------------------|
    b|------------------------------------------|
GTR G|---------------------------8---6----------|
 1  D|-3-6-3-------------------5-8-6-6----------| 
    A|-3-6-3-------------------5-6-3-4----------|
    E|-1-4-1-------------------3---4------------|
      PM                                                            

    e|------------------------------------------|
    b|-------------11------9p6----------------9-|
GTR G|-------12h13----10p8-----8---------10-6---|
 2  D|------------------------------------------|
    A|------------------------------------------|
    E|------------------------------------------|

    e|------------------------------------|
    b|------------------------------------|
GTR G|-----------------5---5---5-4-5------|
 1  D|-6-6-6-6-6-6-6-5---5---5-5-5-5----3-| 
    A|-6-6-6-6-6-6-----------5-3-2-3----3-|
    E|-4-4-4-4-4-4-----------3----------1-|
       P M P M P M                   

    e|-----------------------------------|
    b|-----------------------------------|
GTR G|------------------------5-4-5------|
 2  D|----------------------5-5-5-5----3-|
    A|----------------------5-3-2-3----3-|
    E|----------------------3-3-2-3----1-|
Tap to rate this tab
# A B C D E F G H I J K L M N O P Q R S T U V W X Y Z