Guitaretab - guitar tabs
Song name
# A B C D E F G H I J K L M N O P Q R S T U V W X Y Z

Shai - If I Ever Fall In Love tab

all right this is the hummed part that's n the background:
e:-------------------------|
b:-------------------------|
g:-------------------------|
d:-------------------------|
a:3-032-0--3-032-0---------|
e:----------4-----------4--|
 ok, and this is the chorus:
e:---------------------------------------------------------------------------------------------------|
b:---------------------------------------------------------------------------------------------------|
g:---------------------------------------------------------------------------------------------------|
d:3-2-0----------3-2-0--0-----3-2-0--0--------0-2--3-2-0----------3-2-0--0-----3-2-0--0--------------|
a:--------3--0-----------3--3-2--------3--3-223--------------3--0-----------3--3-2--------3---3-223--|
e:-------------3-4------------------------------------------------------3-4--------------------------|

e:-----------|
b:-----------|
g:-----------|
d:----0------|
a:2-3-3-0----|
e:-----------|
[ Tab from: http://www.guitaretab.com/s/shai/51929.html ]
Related for If I Ever Fall In Love tab