Guitaretab - guitar tabs
Song name
# A B C D E F G H I J K L M N O P Q R S T U V W X Y Z

Shaila - Incendio Global tab

INTRO
e|----------------------------------------------------------------------|
B|----------------------------------------------------------------------|
G|-6-6-6-6--6-4-6---9\8/9----6-6-6-6--6-4-6---9/11\8----------------9---|
D|-6-6-6-6--6-4-6---x-x-x----6-6-6-6--6-4-6---x-x--x----7-7-7-7-7-7-9-9-|
A|-4-4-4-4--4-2-4---7\6/7----4-4-4-4--4-2-4---7/9-\6----7-7-7-7-7-7-7-9-|
E|------------------------------------------------------5-5-5-5-5-5---7-|

e|------------------------------------------------------------------|
B|------------------------------------------------------------------|
G|-6-6-6-6--6-4-6---9\8/9----6-6-6-6--6-4-6---9/11\8----------------|
D|-6-6-6-6--6-4-6---x-x-x----6-6-6-6--6-4-6---x-x--x-------7---9-7~-|
A|-4-4-4-4--4-2-4---7\6/7----4-4-4-4--4-2-4---7/9-\6-----7---7------|
E|-----------------------------------------------------5------------|


VERSE
e|-------------------------------------------------------------------|
B|-------------------------------------------------------------------|
G|---------2-2-4-6---------9-9-8-8-6-6-6-6-8-8-9-9-------------9\8/9-|
D|-2-2-2-2-2-2-4-6-2-2-2-2-9-9-8-8-6-6-6-6-8-8-9-9-7-7-7-7-7-7-x-x-x-|
A|-2-2-2-2-0-0-2-4-2-2-2-2-7-7-6-6-4-4-4-4-6-6-7-7-7-7-7-7-7-7-7\6/7-|
E|-0-0-0-0---------0-0-0-0-------------------------5-5-5-5-5-5-------| x2


PRE-CHORUS
e|-----------------------------|
B|-----------------------------|
G|-------------------/6-/9-/10-|
D|-----7---9-7---7-------------|
A|---7---7-----7---7-----------|
E|-5---------------------------|


CHORUS
e|---------------------------------------------------------------------|
B|---------------------------------------------------------------------|
G|-6-6-6-6---------9-9-9-9-----------6-6-6-6---------------------------|
D|-6-6-6-6-7-7-7-7-9-9-9-9-9-9-10-10-6-6-6-6-7-7-7-7-9-9-7-7-10-10-6-6-|
A|-4-4-4-4-7-7-7-7-7-7-7-7-9-9-10-10-4-4-4-4-7-7-7-7-9-9-7-7-10-10-6-6-|
E|---------5-5-5-5---------7-7-8--8----------5-5-5-5-7-7-5-5-8--8--4-4-|

e|---------------------------------------------------------------------|
B|---------------------------------------------------------------------|
G|-6-6-6-6---------9-9-9-9-----------6-6-6-6-----------------------9-9-|
D|-6-6-6-6-7-7-7-7-9-9-9-9-9-9-10-10-6-6-6-6-7-7-7-7-9-9-7-7-10-10-9-9-|
A|-4-4-4-4-7-7-7-7-7-7-7-7-9-9-10-10-4-4-4-4-7-7-7-7-9-9-7-7-10-10-7-7-|
E|---------5-5-5-5---------7-7-8--8----------5-5-5-5-7-7-5-5-8--8------|


BRIDGE
e|----------------------------------------------------------------------|
B|----------------------------------------------------------------------|
G|-6-6-6-6--6-4-6---9\8/9----6-6-6-6--6-4-6---9/11\8----------------9---|
D|-6-6-6-6--6-4-6---x-x-x----6-6-6-6--6-4-6---x-x--x----7-7-7-7-7-7-9-9-|
A|-4-4-4-4--4-2-4---7\6/7----4-4-4-4--4-2-4---7/9-\6----7-7-7-7-7-7-7-9-|
E|------------------------------------------------------5-5-5-5-5-5---7-|

e|---------------------------------------------------|
B|---------------------------------------------------|
G|-6-6-6-6--6-4-6---9\8/9----6-6-6-6--6-4-6---9/11\8-|
D|-6-6-6-6--6-4-6---x-x-x----6-6-6-6--6-4-6---x-x--x-|
A|-4-4-4-4--4-2-4---7\6/7----4-4-4-4--4-2-4---7/9-\6-|
E|---------------------------------------------------|


VERSE
e|-------------------------------------------------------------------|
B|-------------------------------------------------------------------|
G|-----------2---4---------9-9-8-8-6-6-6-6-8-8-9-9-------------9\8/9-|
D|-2-2-2-2-2-2-2-4-2-2-2-2-9-9-8-8-6-6-6-6-8-8-9-9-7-7-7-7-7-7-x-x-x-|
A|-2-2-2-2-2-0-2-2-2-2-2-2-7-7-6-6-4-4-4-4-6-6-7-7-7-7-7-7-7-7-7\6/7-|
E|-0-0-0-0-0---0---0-0-0-0-------------------------5-5-5-5-5-5-------| 
 PMииииииииии иии ииииииии
[ Tab from: http://www.guitaretab.com/s/shaila/189688.html ]
e|-------------------------------------------------------------------|
B|-------------------------------------------------------------------|
G|---------2-2-4-6---------9-9-8-8-6-6-6-6-8-8-9-9-------------9\8/9-|
D|-2-2-2-2-2-2-4-6-2-2-2-2-9-9-8-8-6-6-6-6-8-8-9-9-7-7-7-7-7-7-x-x-x-|
A|-2-2-2-2-0-0-2-4-2-2-2-2-7-7-6-6-4-4-4-4-6-6-7-7-7-7-7-7-7-7-7\6/7-|
E|-0-0-0-0---------0-0-0-0-------------------------5-5-5-5-5-5-------|


PRE-CHORUS
e|-----------------------------|
B|-----------------------------|
G|-------------------/6-/9-/10-|
D|-----7---9-7---7-------------|
A|---7---7-----7---7-----------|
E|-5---------------------------|


CHORUS
e|---------------------------------------------------------------------|
B|---------------------------------------------------------------------|
G|-6-6-6-6---------9-9-9-9-----------6-6-6-6---------------------------|
D|-6-6-6-6-7-7-7-7-9-9-9-9-9-9-10-10-6-6-6-6-7-7-7-7-9-9-7-7-10-10-6-6-|
A|-4-4-4-4-7-7-7-7-7-7-7-7-9-9-10-10-4-4-4-4-7-7-7-7-9-9-7-7-10-10-6-6-|
E|---------5-5-5-5---------7-7-8--8----------5-5-5-5-7-7-5-5-8--8--4-4-| x2


BRIDGE
e|----------------------------------------------|
B|----------------------------------------------|
G|--4444444--5555555--6666666-------------------|
D|--4444444--5555555--6666666--6666666--7777777-|
A|--2222222--3333333--4444444--6666666--7777777-|
E|-----------------------------4444444--5555555-|
                                                                Feedback
e|-----------------------------------------------------------|---------|
B|-----------------------------------------------------------|--9~~~~--|
G|-4444444--6666666-------------4~-6~-------4~---------------|---------|
D|-4444444--6666666--6666666-7~-4~-6~-6~-7~-4~-222222-222222-|---------|
A|-2222222--4444444--6666666-7~-2~-4~-6~-7~-2~-222222-222222-|---------|
E|-------------------4444444-5~-------4~-5~----000000-000000-|---------|
 PM                                            ииииии ииииии


CHORUS
e|---------------------------------------------------------------------|
B|---------------------------------------------------------------------|
G|-6-6-6-6---------9-9-9-9-----------6-6-6-6---------------------------|
D|-6-6-6-6-7-7-7-7-9-9-9-9-9-9-10-10-6-6-6-6-7-7-7-7-9-9-7-7-10-10-6-6-|
A|-4-4-4-4-7-7-7-7-7-7-7-7-9-9-10-10-4-4-4-4-7-7-7-7-9-9-7-7-10-10-6-6-|
E|---------5-5-5-5---------7-7-8--8----------5-5-5-5-7-7-5-5-8--8--4-4-|

e|---------------------------------------------------------------------|
B|---------------------------------------------------------------------|
G|-6-6-6-6---------9-9-9-9-----------6-6-6-6---------9-9-9-9-----------|
D|-6-6-6-6-7-7-7-7-9-9-9-9-9-9-10-10-6-6-6-6-7-7-7-7-9-9-9-9-9-9-10-10-|
A|-4-4-4-4-7-7-7-7-7-7-7-7-9-9-10-10-4-4-4-4-7-7-7-7-7-7-7-7-9-9-10-10-|
E|---------5-5-5-5---------7-7-8--8----------5-5-5-5---------7-7-8--8--|

Guitar 1
e|---------------------------------------------------------------------|
B|---------------------------------------------------------------------|
G|-6-6-6-6---------9-9-9-9-----------6-6-6-6-----------------------9-9-|
D|-6-6-6-6-7-7-7-7-9-9-9-9-9-9-10-10-6-6-6-6-7-7-7-7-9-9-7-7-10-10-9-9-|
A|-4-4-4-4-7-7-7-7-7-7-7-7-9-9-10-10-4-4-4-4-7-7-7-7-9-9-7-7-10-10-7-7-|
E|---------5-5-5-5---------7-7-8--8----------5-5-5-5-7-7-5-5-8--8------|

Guitar 2
e|----------------------------------------------|
B|----------------------------------------------|
G|-9-9-9-9-11-11-9-9-11-13-13-13-13-14-14-14-14-|
D|-x-x-x-x-x--x--x-x-x--x--x--x--x--x--x--x--x--|
A|-7-7-7-7-9--9--7-7-9--11-11-11-11-12-12-12-12-|
E|----------------------------------------------|

|---------------------------------------------|
|---------------------------------------------|
|-13-13-13-13-9-9-9-9-14-14-13-13-11-11-13-13-|
|-x--x--x--x--x-x-x-x-x--x--x--x--x--x--x--x--|
|-11-11-11-11-7-7-7-7-12-12-11-11-9--9--11-11-|
|---------------------------------------------|



PM (иии): Palm-mute
~: Let ring
/: Slide
x: Muted note

http://www.shaila.com.ar/
Related for Incendio Global tab