Song name
# A B C D E F G H I J K L M N O P Q R S T U V W X Y Z

Shaka Ponk - Im Picky tab

   
 I'm Picky,   Shaka Ponk


I. Rythms:
 

E|--------------------------------------------------------------------------|
B|--------------------------------------------------------------------------|
G|--------------------------------------------------------------------------|
D|--6-2-9-4---6-2-9-4---6-2-9-4---2-4---------------------------------------| Chorus
A|--6-2-9-4---6-2-9-4---6-2-9-4---2-4---------------------------------------|  (x2)
D|--6-2-9-4---6-2-9-4---6-2-9-4---2-4---------------------------------------|

E|--------------------------------------------------------------------------|
B|--------------------------------------------------------------------------|
G|--------------------------------------------------------------------------|  Solo
D|--6-4-9-1-4---6-4-9-1-4---6-4-9-1-4---2-4---------------------------------|  rythm
A|--6-4-9-1-4---6-4-9-1-4---6-4-9-1-4---2-4---------------------------------|  (x2)
D|--6-4-9-1-4---6-4-9-1-4---6-4-9-1-4---2-4---------------------------------|  

E|--------------------------------------------------------------------------|
B|--------------------------------------------------------------------------|
G|--------------------------------------------------------------------------|
D|--6-9-11-2-4---6-9-11-2-4---6-9-11-2-4---2-4------------------------------|  Bridge
A|--6-9-11-2-4---6-9-11-2-4---6-9-11-2-4---2-4------------------------------|   (x1)
D|--6-9-11-2-4---6-9-11-2-4---6-9-11-2-4---2-4------------------------------|

II. Riffs:

E|--4-11-7-6-4-6-7-11-4---7-6-4-6-7-14-4---7-6-4-6-7-11-4---7-6-4-6-7-11-4--| Main riff
B|--------------------------------------------------------------------------|   (x2)
G|--------------------------------------------------------------------------|(palm mute) 
D|--------------------------------------------------------------------------|  
A|--------------------------------------------------------------------------|
E|--------------------------------------------------------------------------|

E|--4-6-9--7-9-4--11-9--7-9-4-----------------------------------------------| After 
B|--------------------------------------------------------------------------| chorus
G|--------------------------------------------------------------------------| harmony
D|--------------------------------------------------------------------------|  (x1)
A|--------------------------------------------------------------------------| (while
E|--------------------------------------------------------------------------| main riff)

E|--/9-11---9-9-11-12-11--11-9-9-11-12-11---9-9-11-12-11---11-9-9-7-6-------|  Solo
B|--------9-------------------------------9---------------------------9-9---|
G|--------------------------------------------------------------------------|
D|--------------------------------------------------------------------------|
A|--------------------------------------------------------------------------|
E|--------------------------------------------------------------------------|

E|--/9-9-11-12-11---11-9-9-7-6---6-7-9-11-14-16-14~-------------------------|
B|-----------------------------9--------------------------------------------|
G|--------------------------------------------------------------------------|
D|--------------------------------------------------------------------------|
A|--------------------------------------------------------------------------|
E|--------------------------------------------------------------------------|
Tap to rate this tab
# A B C D E F G H I J K L M N O P Q R S T U V W X Y Z