Song name
# A B C D E F G H I J K L M N O P Q R S T U V W X Y Z

Shakedown - State Of The Nation tab

intro-verse
e---------------------------------------|
B---------------------------------------|
G-------------------------------8-8-8-8-|
D---8-8-8-8-11-11-11-11-6-6-6-6-8-8-8-8-|
A---8-8-8-8-11-11-11-11-6-6-6-6-6-6-6-6-|
E---6-6-6-6-9--9--9--9--4-4-4-4---------|


then this riff comes after the chorus
e------------------------------------------------------|
B------------------------------------------------------|
G-7/10-10/12-13-15-13-12------12h13---12h13------------|   x2
D------------------------13-13------13-----------------|
A------------------------------------------------------|
E------------------------------------------------------|


there you go its not all corect but this close, play it and listen to the song they 
up stroke parts of the verse, and then parts of the chorus something else happens. listen to 
song. not complicated tab.
Tap to rate this tab
 
# A B C D E F G H I J K L M N O P Q R S T U V W X Y Z