Song name
# A B C D E F G H I J K L M N O P Q R S T U V W X Y Z

Shakespeares Sister - Hello Hello tab

This is a rare unreleased song originally by Hayley Williams and this tab is at least 
50% of the song cause there are like 5 guitars playing in this song

Hello Hello

Drop D

*-Intro
Listen For Strumming:
e|-------------------------------------|
B|-------------------------------------|
G|-9--9--12121212-12-12-5--5--7777-7-7-|
D|-7--7--10101010-10-10-3--3--5555-5-5-|
A|-7--7--10101010-10-10-3--3--5555-5-5-|
D|-7--7--10101010-10-10-3--3--5555-5-5-|

e|-------------------------------------|
B|-------------------------------------|
G|-9--9--12121212-12-12-5-5-5-5--77-7--|
D|-7--7--10101010-10-10-3-3-3-3--55-5--|
A|-7--7--10101010-10-10-3-3-3-3--55-5--|
D|-7--7--10101010-10-10-3-3-3-3--55-5--|

Second Part:
There are like 3 or 4 guitars here but i've only got 2
Gtr 1
e|---------------------------------|
B|---------3-3h5-3-----------------|
G|-5-2-5-2---------5-2-5-2-4-2-4-2-|
D|---------------------------------| x2
A|---------------------------------|
D|---------------------------------|

Gtr2

e|-------------------------------------|
B|-------------------------------------|
G|-------------------------------------|
D|-7--7--10101010-10-10-3--3--5555-5-5-| x 2
A|-7--7--10101010-10-10-3--3--5555-5-5-|
D|-7--7--10101010-10-10-3--3--5555-5-5-|

*-Verse:
i don't know what's happening on the first part but the second part is

like this:

e|------------------------|
B|------------------------|
G|------------------------|
D|-77-7--00-0--33-3--55-5-|
A|-77-7--00-0--33-3--55-5-| x2
D|-77-7--00-0--33-3--55-5-|

*-Pre-chorus:
In this part i'm in a hurry cause there's so much going on so i

just figured the rhythm part.

e|---------------------------------|
B|---------------------------------|
G|---------------------------------|
D|-7-7-7-7-0-0-0-0-3-3-3-3-5-5-5-5-|
A|-7-7-7-7-0-0-0-0-3-3-3-3-5-5-5-5-| x2
D|-7-7-7-7-0-0-0-0-3-3-3-3-5-5-5-5-|

*-Chorus:

e|-------------------------------------|
B|-------------------------------------|
G|-------------------------------------|
D|-7--7--10101010-10-10-3--3--5555-5-5-| x 4
A|-7--7--10101010-10-10-3--3--5555-5-5-|
D|-7--7--10101010-10-10-3--3--5555-5-5-|

-----------------
Repeat Intro Once
-----------------
Repeat Verse
-----------------
Repeat Pre-Chorus
-----------------
Repeat Chorus
-----------------

*-Bridge
Too lazy to figure it out right now to be honest so again just the Rhythm and i can say 
this might be wrong.

e---------------------------------------------|
B---------------------------------------------|
G---------------------------------------------|
D|77777777-33333333-77777777-10(this chord)---|
A|77777777-33333333-77777777-10( like 16 )----|
D|77777777-33333333-77777777-10( times )------|

*-Solo:
I'm tabbing it tomorrow

Rhythm: The Same As The Chorus

--------------
Repeat Chorus
--------------
Repeat Intro
Till Fade Out
--------------

End!
Tap to rate this tab
# A B C D E F G H I J K L M N O P Q R S T U V W X Y Z