Song name
# A B C D E F G H I J K L M N O P Q R S T U V W X Y Z

Shakey Graves - Late July tab

-------------------------------------------------------------------------------
                             LATE JULY - Shakey Graves
-------------------------------------------------------------------------------

- TUNING: DADF#AD = Open D Tuning (tune 1st string 1 step down, 2nd string 1 step down,
3rd string 1/2 step down, 6th or low E-String 1 step down)

- Tabbed from http://www.youtube.com/watch?v=eUkSTnUK_T0



INTRO (+VERSE) 
    
   d |----12~-11~-----|-----------------|----12~-11~-----|-----------------|
   a |------------9~--|-7~--5~--7~--9~--|-0----------9~--|-7~--5~--7~--9~--|
   F#|----------------|----------------0|----------------|-----------------|
PM D |--0---0---0---0-|---0---0---0---0-|--0---0---0---0-|---0---0---0---0-|
   A |----------------|-----------------|----------------|-----------------|
PM D |0---0---0---0---|-0---0---0---0---|0---0---0---0---|-0---0---0---0---|


PT. 1 

   d |-------------------0--------------|----------------0---------------|
   a |---------0-------------------0*---|------0-------------------0*----|
   F#|-----8-------8-----------8--------|--8-------8-----------8---------|
   D |-------9-------9-------9-------9--|----9-------9-------9-------9---|
   A |-0h10------10------10------10-----|10------10------10------10------|
   D |----------------------------------|--------------------------------|
count:    1 _ + _ 2 _ + _ 3 _ + _ 4 _ + _ 1 _ + _ 2 _ + _ 3 _ + _ 4 _ + _

   d |--------------------0--------------|-------------------------------|
   a |----------0-------------------0**--|------0------------------------|
   F#|------7-------7-----------7--------|--7-------7-----7~-------------|
   D |--------8-------8-------8-------8--|----8-------8---8~-------------|
   A |----9-------9-------9-------9------|9-------9-------9~-------------|
   D |-----------------------------------|-------------------------------|
          1 _ + _ 2 _ + _ 3 _ + _ 4 _ + _ 1 _ + _ 2 _ + _ 3 _ + _ 4 _ + _


PT. 2

   d |-----------------------------------|-------------------------------|
   a |-----------------------------------|-------------------------------|
   F#|-----------------------------------|-------------------------------|
PM D |--------5---5-5-5-------5---5-5-5--|----5---5-5-5-------5---5-5-5--|
PM A |----5---5---5-5-5---7---7---7-7-7--|9---9---9-9-9---7---7---7-7-7--|
PM D |----5---5---5-5-5---5---5---5-5-5--|5---5---5-5-5---5---5---5-5-5--|
          1 _ + _ 2 _ + _ 3 _ + _ 4 _ + _ 1 _ + _ 2 _ + _ 3 _ + _ 4 _ + _


PT. 3

   d |---------4---------0--------------|------3---0-----------2---0-----|
   a |-----------------------------0----|--------------------------------|
   F#|-----3-------3-----------3--------|--2-----------2---1-----------1-|
   D |-------4-------4-------4-------4--|----3-------3-------2-------2---|
   A |---2-------2-------2-------2------|1-------1-------0-------0-------|
   D |----------------------------------|--------------------------------|
         1 _ + _ 2 _ + _ 3 _ + _ 4 _ + _ 1 _ + _ 2 _ + _ 3 _ + _ 4 _ + _

   d |---------0-----------------------0|------------------------------0-|
   a |-----------------0-------0--------|------0-------0-------0---------|
   F#|-----0-------0-------0-------0----|--0-------0-------0-------0-----|
   D |-------0-------0-------0-------0--|----0-------0-------0-------0---|
   A |----------------------------------|--------------------------------|
   D |---0-------0-------2p0-----2p0----|0-------0-------2p0-----2p0-----|
         1 _ + _ 2 _ + _ 3 _ + _ 4 _ + _ 1 _ + _ 2 _ + _ 3 _ + _ 4 _ + _


*  = or hold 10th fret with 4th finger
** = or hold  9th fret with 4th finger

PM = Palm Mute
Tap to rate this tab
# A B C D E F G H I J K L M N O P Q R S T U V W X Y Z