Song name
# A B C D E F G H I J K L M N O P Q R S T U V W X Y Z

Shakira - Underneath Your Clothes tab

singer: shakira
song: Underneath your clothes
transcribed by: Alejandro Santa Cruz Schaack

I made a few arrengements, cause the guitar I on the verse part was wrong, 
this is how the verse
should be played
4/4
  Gtr I
|---------------------------||---------------------------|
|---------------------------||---------------------------|
|---5-----------------------||---6-----------------------|
|-----7-9-9-7-----6---6---7-||-----7-9-------------------|
|-------------5-----5---5---||---------------11h12p11----|
|-5-----5-------------------||-5-----5-5S10--------------|


||----------|-----|-----|----------|--||----|
||o---------|-9---|-7---|-10---9---|-o||----|
||----------|---9-|---7-|----9---9-|--||----|
||------4---|-----|-----|----------|--||----|x 2
||o---4---4-|-7---|-5---|--7-------|-o||----|
||--2-------|-----|-----|----------|--||----|

you area song writtenby thehand of god.......
|----------------------------------------||
|-10----10----9----9----7---7---10---9---||
|-11----11----9----9----7---7----9---9---||
|----11----11---11---11---7---7----9---9-||
|----------------------------------------||
|----------------------------------------||

when the friends....
|---------------------------7-7---------||--|
|-10----10----9----9------7---7-----9-9-||--|
|-11----11----9----9----7-----7---9---9-||--|
|----11----11---11---11---------9-----9-||--|
|---------------------------------------||--|
|---------------------------------------||--|


  A        C#7
|-----------------------------------|
|-----------------------------------|
|-----------------------------------|
|-----7------7------7------7-6-7----|
|---7---7--4----4-5----5-7----------|
|-5---------------------------------|
Tap to rate this tab
# A B C D E F G H I J K L M N O P Q R S T U V W X Y Z