Song name
# A B C D E F G H I J K L M N O P Q R S T U V W X Y Z

Shakira - Underneath Your Clothes tab

Help us improve GuitareTab! Take a short survey!
Shakira
Underneath Your Clothes
Tabbed by Eric G

(Bass Plays Intro) 


Verse
E--8------8--------------------------------
B--9------8-------6-------------9----8-----
G--10-----8-------6-------------8----8----- (play 2 Times)
D--10-----10------6-------------8----8-----
A--8------10------8-------------6----6-----
E---------8-------9------------------------

You're a song    Written by the hand of God 

Don't get ,,,,,,,,,,,,,,,,,,,,,,,,,a bit Odd


E------------------------------------------
B--9-------9-------8------8------6-----6---
G--10------10------8------8------6-----6---
D------10------10-----10-----10-----6-----6
A------------------------------------------
E------------------------------------------

            But you own tha place


E-----------------------------------------------
B--9-----8---------9-------9-------8------8-----
G--8-----8---------10------10------8------8-----
D-----8-----8----------10------10-----10------10
A-----------------------------------------------
E-----------------------------------------------

All my thoughts go hid.................ing


E--7--------------------------------------------
B--7--------------------9-----------------------
G--7--------------------9-----------------------
D--9--------------------9-----------------------
A--9--------------------7-----------------------
E--7--------------------------------------------


Right under your ... Is where 



(Chorus)
"Here's the chords...I kinda finger pick through them..  
listen to the Song for phrasing"

E-----------------------------------------------
B--4--4----------6--------------------9--------8
G--5--5----------6--------------------8--------8   (Play 2 Times)
D--6--6----------6--------------------8--------8
A--6--3----------4--------------------6--------6
E--4--------------------------------------------

Underneath  Your Clothes  There's an Endless Story
There's the ............................ territory

E--3--------------------1-------------1--------
B--4--------------------1-------------2--------
G--5--------------------1-------------3--------
D--5--------------------3-------------3--------
A--3--------------------3-------------1--------
E-----------------------1----------------------

And All the things I deserve     For Being

E-----------------------------4----------------
B--------9---8----------------4-----6----------
G--------8---8----------------5-----6----------
D--------8---8----------------6-----6----------
A--------6---6----------------6-----4----------
E-----------------------------4----------------


Such a good girl honey

Verse Again

Then It plays twice through the Chorus..At the end of the Second time It skips the Bb and goes
Strait to the C# from the F min

E--1-------------
B--1---------6---
G--1---------6---
D--3---------6---
A--3---------4---
E--1-------------



Bridge Chords

E--7---------------6-------------------------------4---------2
B--7---------------7-------------------------------4---------2
G--8---------------6-------------------------------4---------3
D--9---------------8-------------------------------6---------4
A--9---------------9-------------------------------6---------4
E--7---------------6-------------------------------4---------2


I love you more than all thats on the planet    Movin.......BReathin


E--0-----------------------2----------------------------
B--0-----------------------2----------------------------
G--1-----------------------3----------------------------   Play progression 2 times
D--2-----------------------4----------------------------
A--2-----------------------4----------------------------
E--0-----------------------2----------------------------

You know its true..........YOu Almost



Solo /You can figure that yourself its really easy,,,chords behind are similiar to verse

Repeats previous progressions...heres the last 3 chords



E------------------------8---------
B--8---------------------9---------
G--8----------------8----10--------
D--8----------------8----10--------
A--6----------------7----8---------
E----------------------------------

For Being Such a Good Girl



Any Comments or Questions.......ericgband@hotmail.com
Related for Underneath Your Clothes tab