Song name
# A B C D E F G H I J K L M N O P Q R S T U V W X Y Z

Shakira - Si Te Vas tab

Artist: Shakira
Song: Si Te Vas
Tuning: Standard low to high (EADGBe)
Questions: DiscJockeyJT@gmail.com

Capo on 2nd Fret
Light Distortion/Overdrive

Intro:
e--------------------------1-0-----|
B------3-------3-------3-------3-1-|
G----0---0---0---0---2---2---------|
D------------------0---------------|
A--3-------------------------------|
E----------3-----------------------|

e----------------------1-----1-0-----|
B------3-------3-------3---------3-1-|
G----0---0---0---0-----2---2---------|
D----------------------0-------------|
A--3---------------------------------|
E----------3-------------------------|

Verse 1:
"Cuéntame que harás después que estrenes su cuerpo"
e----------------------------------|
B------3-------3-------3-----------|
G----0---0---0---0---2---2---------|
D------------------0---------------|
A--3-------------------------------|
E----------3-----------------------|

e--------------------------1-0-----|
B------3-------3-------3-------3-1-|
G----0---0---0---0---2---2---------|
D------------------0---------------|
A--3-------------------------------|
E----------3-----------------------|

e----------------------------------|
B------3-------3-------3-----------|
G----0---0---0---0---2---2---------|
D------------------0---------------|
A--3-------------------------------|
E----------3-----------------------|

==========================vvv==Not sure bout that part
e-------------------1--|---3-3-3-3--|
B------3-------3----3--|---5-5-5-5--|
G----0---0---0---0--2--|-4----------|
D-----------------------------------|
A--3--------------------------------|
E----------3------------------------|
Tap to rate this tab
 
# A B C D E F G H I J K L M N O P Q R S T U V W X Y Z