Shakira - The One tab

Shakira - The One
21.7.11
Tabbed by DeLTaR

Key: G#


Intro:
---------------------------------------------|
---------------------------------------------|
---------------------------------------------|
-------10-----10-----10----------------------|
--6/8------7------6---------------8-------7--|
-------------------------10--7/9-----6/8-----|
So I find a reason to shave my legs
Each single morning

---------------------------------------------|
---------------------------------------------|
---------------------------------------------|
-------10--------10---------10---------10----|
--6/8------8/10------10/11-------------------|
--------------------------------10--9------8-|
So I count on someone on Friday nights
To take me dancing again
To church on Sundays

Bbm            Eb
To plant more trees
Bbm                   Eb
And someday think of kids
Bbm                   Eb
Or maybe just save a little money


Chorus:
Ab          Cm   Fm
You're the one I need
C#
The way back home is always long
    C#m
But if you're close to me I'm holding on
Ab         Cm    Fm
You're the one I need
C#
My real life has just begun
              C#m
Cause there's nothing like your smile
	Fm
made of sun
Ab                    C#
In the world full of strangers
           C
You're the one I know


Solo:
-4s6--4-----4--------------------------------|
--------6-----6--4--6------------------------|
------------------------5~ ------------------|
---------------------------------------------|
---------------------------------------------|
---------------------------------------------|

(Play Intro again)

So I learned to cook and finally lose
My kitchen phobia
And so I got the arms to cuddle in
When there's a ghost or a news
That brings insomnia

Bbm          Eb
To buy more thongs
Bbm                  Eb
To write more happy songs
Bbm                       Eb
It always takes a little help from someone

Chorus:
Ab          Cm   Fm
You're the one I need
C#
The way back home is always long
    C#m
But if you're close to me I'm holding on
Ab         Cm    Fm
You're the one I need
C#
My real life has just begun
              C#m
Cause there's nothing like your smile
	Fm
made of sun


Solo:
|  -14s16----------16--14--------------------------|
|  --------16--13----------16--14--16--14--16--14--|
|: ------------------------------------------------|
|: ------------------------------------------------|
|  ------------------------------------------------|
|  ------------------------------------------------|

C# - C


Chorus:
Ab          Cm   Fm
You're the one I need
C#
The way back home is always long
    C#m
But if you're close to me I'm holding on
Ab         Cm    Fm
You're the one I need
C#
My real life has just begun
              C#m
Cause there's nothing like your smile
	Fm
made of sun



Outro:
Ab          Cm   Fm
You're the one I need
                 C#
You're the one I need
C#m
With you my real life has just begun

Ab          Cm  Fm
You're the one I need
C#
You're the one I need
C#m
Nothing like your smile made of sun
Ab       Cm      Fm
Nothing like your love
                  C#
Nothing like your love
C#m
Ahhhhhhhhhhhhhhhhhhhhhhh
                  Ab
Nothing like your love
Tap to rate this tab
 
# A B C D E F G H I J K L M N O P Q R S T U V W X Y Z