Song name
# A B C D E F G H I J K L M N O P Q R S T U V W X Y Z

Shakira - Si Me Quedas Tu tab

This is just the intro to the song. It's pretty easy though.
The intro is with no distortion. 

e-------------------------------------------------------------------------------
b-------------------------------------------------------------------------------
g-------------------------------------------------------------------------------
D-----------1-------------------------------------------------------------------
A---3---3------3---3---------1-----------------------------------------0--0--0--
E----------------------3---3-----3-----3---5--6--6--6---6----5--3--1--1--1--1---


e-------------------------------------------------------------------------------
b-------------------------------------------------------------------------------
g-------------------------------------------------------------------------------
D----------1--------------------------------------------------------------------
A---3---3------3---3----------1-------------------------------------------0---0-
E-----------------------3---3-----3---3----5---6--6---6--6---5---3--1-1--1-1---1


That's it. Not sure if I wrote it right, but if you have any questions,
please e-mail me at faeofmiracles@aol.com. Enjoy!
Tap to rate this tab
 
# A B C D E F G H I J K L M N O P Q R S T U V W X Y Z