Song name
# A B C D E F G H I J K L M N O P Q R S T U V W X Y Z

Shakira - Waka Waka This Time For Africa tab

Note: These tabs are for the short Instrumental solo part in the song, I couldn't really 
find any other tabs on the internet for it,
so I thought I'd just put it up. Hope you like, and enjoy :)


E|-------------------10-10-10-8-7---------------------10-10-10-8-7------7-----7-------|
B|-------8-----8------------------10------7-----7------------------10-----------------|
G|---7-----7-----7--------------------7-----7-----7-----------------------9-----9/12--|
D|------------------------------------------------------------------------------------|
A|------------------------------------------------------------------------------------|
E|------------------------------------------------------------------------------------|

--12----------12--12---8-----8-----8-----8---7------|
-------------------------------------------------8--|
-------10/12-------------------9-----9--------------|
----------------------------------------------------|
----------------------------------------------------|
----------------------------------------------------|

-------------------10-10-10-8-7---------------------10-10-10-8-7------7-----7-------|
-------8-----8------------------10------7-----7------------------10-----------------|
---7-----7-----7--------------------7-----7-----7-----------------------9-----9/12--|
------------------------------------------------------------------------------------|
------------------------------------------------------------------------------------|
------------------------------------------------------------------------------------|

--12----------12--12---8-----8--------12--10--8---7------|
------------------------------------------------------8--|
-------10/12-------------------9----12--11--9------------|
---------------------------------------------------------|
---------------------------------------------------------|
---------------------------------------------------------|
Tap to rate this tab
# A B C D E F G H I J K L M N O P Q R S T U V W X Y Z