Guitaretab - guitar tabs
Song name
# A B C D E F G H I J K L M N O P Q R S T U V W X Y Z

Shakira - Eyes Like Yours tab

The Graceful One can really write a great riff!

This is my first tab, so be nice!

[ Tab from: http://www.guitaretab.com/s/shakira/44183.html ]
    e|-------------------------|-------------------------|
    B|-------------------------|-------------------------|
    G|-------------------------|-------------------------|
    D|-------------------------|-------------------------|
    A|-----8-9-8-11-9-8-9-8----|-----8-9-8-11-9-8-9-8----|
    E|-7-9------------------7--|-7-9------------------9-7|

    e|-------------------------|-------------------------|
    B|-------------------------|-------------------------|
    G|-------------------------|-------------------------|
    D|-------------------------|-------------------------|
    A|-----8-9-8---------------|-------------------------|
    E|-7-9-------9-------------|-------------------------|

    Its only the intro, the rest is all funny arabic-esque
    instruments and stuff!
Related for Eyes Like Yours tab
Advertisement will be closed in 10 seconds