Song name
# A B C D E F G H I J K L M N O P Q R S T U V W X Y Z

Shakira - Hips Dont Lie tab

Most of this song was figured out by rockero_9631245, but he/she had a couple of
 wrong notes - so I changed a few.

rockero_9631245 had this:
e|-9-8-6---------6-9-8-6-----------------------------------|
B|--------7---7-9---------9-6---6-7-9-11-9-7-13-11-9-11----|
G|---------------------------------------------------------|
D|---------------------------------------------------------|
A|---------------------------------------------------------|
E|---------------------------------------------------------|

This is my version:
e|---9-8-6---------6----8-6-4-----------------------------------|
B|---------7----7h9-7---------6----6h7/9---11-9-7--13-11-9-11---|
G|--------------------------------------------------------------|
D|--------------------------------------------------------------|
A|--------------------------------------------------------------|
E|--------------------------------------------------------------|

This riff was figured out by rockero_9631245 as well:
~ - vibrato
interlude(2:30)
e|----------13~--------14~--------18-13~~---|
B|---11-11-------11-11------11-11-----------|
G|------------------------------------------|
D|------------------------------------------|
A|------------------------------------------|
E|------------------------------------------|

Any quesions, comments, corrections - email me: Bunting16@hotmail.com

Tap to rate this tab
# A B C D E F G H I J K L M N O P Q R S T U V W X Y Z