Song name
# A B C D E F G H I J K L M N O P Q R S T U V W X Y Z

Shakira - Whee On Burning Starr tab

-------------------------------------------------------------------------------
			     WHEE ON BURNING STARR (omg now ur ded) - Shakira
-------------------------------------------------------------------------------
Tabbed by: Satan
Email:gyuyufyytjkjt@Satansland.nl

Tuning:Monkey Tuning: High to low: F#, Cbb, B#, U#, G#,Zb

|--5---------------19--19-19-19-19-19-19------------------------------7-----|
|---------5-----19-----------------------10------------8-----9---16-----7---|
|-------5-5-5-----------------------------10------8-------------------------|
|---------------------------------------------8------------9---0--0-----17--|
|------------------------------------------------------------------------1--|
|--------------------------------------------------------------------------7|
  o say weeeeeeeeeeeeeeeeeeeeeeee duck kigs on duh mints burning star
|---7-------8---9-----------0--8-----8-0------------------------------------|
|-------7-----------7--5-6-0------8--------0----------5--6--7-8--9----------|
|----------------------------------------------0---0------------------------|
|---------------------------------------------------------------------------|
|---------------------------------------------------------------------------|
|---------------------------------------------------------------------------|
  oh god you got run over by a car, with a pick,le on a chickle rickle fickle
|--8-----------------8--5--7--10----9+----------------------------------21--|
|-----7--8-6---8------------------------9+---------------------------7------|
|-----------------------------------------9+-----------------------5--------|
|----------------------------------------------9+---------------7-----------|
|----------------------------------------------------9+-------9-------------|
|-------------------------------------------------------9+------------------|
  s*** s*** u got a hit hit blood in air hair pare share delaware fair
|----------------------------2-----------------------------9----------------|
|-----------------------7-------7-------------6-3-5-6--5-------7------------|
|------------------2-------------------------6-------------------------3----|
|--------------5--------------------27---------------------------7----------|
|----------8-------------------------6-------------------------------5------|
|---8----7------------------------------------------------------------------|
  omg i sed omg, omg now ur ded!!!!!!!!!! i ate u 4 brekfust but u tast crap
|-6-------------------------------------------------------21-------------9--|
|-----5-------------------------------------------6----21-------------------|
|------4---------------------------------5--6--3--------------8-------------|
|----------3-------------------------7----------------------------8---------|
|--------------5----6-------7-5---5----------------------------------8------|
|----------------------6----------------------------------------------------|
  now it be being time 4 me nap. peepee peepee weewee weewee weeeeeeeeeee
|--21--21--21--21--21--21--21--21--21--21--21--21--21--21--21--21--21--12--1|
|---------------------------------------------------------------------------|
|---------------------------------------------------------------------------|
|---------------------------------------------------------------------------|
|---------------------------------------------------------------------------|
|---------------------------------------------------------------------------|
  o say weeeeeeeeeeeeeeeeeeeeeeee duck kigs on duh mints burning star
|-x---------------------------------------------------x----------------9--9-|
|----x----x-----5xxxx--------3------------------x-------------4-7-7-7-------|
|------------------------------------------3---x----------------6-----------|
|-------------------------3-------3----x---x----------7---------------------|
|-----------------------------------------------------------7------7--------|
|---------------------------------------------------------------------------|
  the monkeys are set out far, cuz yer deaaaaad!! in my heaaaad!! pie in sky
]--4-----------------8--------------------------------------------------7---|
|--4---------------------------------------------7h6---5h7--------------563-|
|--4---------------------------7-----------0--------------------35----------|
|---44---7\3\5\6------4+------------------0------------------378------------|
|----------------------------0----------------------------------------------|
|---------------------------------------------------------------------------|
  ooooooooooooooooooooooooooooooooooooooooooooo fart my head chickenz wii bop

| /  slide up
| \  slide down
| h  hammer-on
| p  pull-off
| ~  vibrato
| +  harmonic
| x  Mute note
===============================================================================
Tap to rate this tab
# A B C D E F G H I J K L M N O P Q R S T U V W X Y Z