Song name
# A B C D E F G H I J K L M N O P Q R S T U V W X Y Z

Shakira - Beautiful Liar tab

Artist: Beyonce & Shakira
Song: Beautiful Liar


e|---3--3-----------------------3--3--------------------|
B|--------3h4p3----3--4--4--3--------3h4p3----3--4--3---|
G|---------------5--------------------------5-----------|
D|------------------------------------------------------|
A|------------------------------------------------------|
E|------------------------------------------------------|


e|------------------------|
B|------------------------|
G|------------------------|
D|----5--6--6---5-3--5----|
A|----5--6--6---5-3--5----|
E|------------------------|



Bridge: rapidly strum these chords (better without plectrum)

Fm  133111

Cm  x35543




Tabbed by NintEndO
Tap to rate this tab
# A B C D E F G H I J K L M N O P Q R S T U V W X Y Z