Song name
# A B C D E F G H I J K L M N O P Q R S T U V W X Y Z

Shakira - Timor tab

Highlighted       Show chord diagrams
----------------------------------------------------------------------------
			     Timor - Shakira
----------------------------------------------------------------------------
Tabbed by: Hammandy Garca Jimnez
Email: hammandy@hotmail.com


Timor...
Timor...
Timor...
Timor...
Timor...

Bm A Fm#

e|------------------------------------|
B|------------------------------------|
G|------------------------------------|
D|------------------------------------|
A|-2-2-5-2-0-0-4-0-----4-------4------|
E|-----------------2-2---2-22---2-----|


Em
It's alright, it's alright
Fm#
Cause the system never fails
Em
The good guys are in power

And the bad guys are in jail

Em
It's alright, it's alright
Fm#
Just as long as we can vote
Em
We live in democracy
Em
And that's what we promote
Bm        A 
Isn't it? Isn't it?
Fm#
Isn't it? Isn't it?

Em
It's alright, it's alright
Fm#
If the news says half the truth
Em 
Hearing what we want is the 
Em
secret of eternal youth

Em 
It's alright, it's alright,
Fm#
If the planet splits in three
Em
Cause I'll keep selling records

And you've got your MTV


CORO

Bm
If we forget about them don't worry
Fm#
If they forget about us then hurry
Em           Fm#               Em        A
How about the people who don't matter anymore?
Bm
East Timor, Timor, Timor

Em
It's alright, it's alright
Fm#
IF they don't show all on TV
Em
So we won't really know it
Em
Just by watching BBC

Em
It's alright, it's alright
Fm#
For our flag we die or kill
Em
As long as we don't know

We do it just to pay their bills


CORO

Fm#
If they forget about us then hurry
Em           Fm#               Em        A
How about the people who don't matter anymore?
Bm
East Timor, Timor, Timor

           A                  Em
Lets keep tanning while it's sunny
             A                       Em
They'll risk our hides to make their money
              Fm#       F#
Now don't you find that funny?

Fm#
If they forget about us then hurry
Em           Fm#               Em        A
How about the people who don't matter anymore?
Bm
East Timor, Timor, Timor

Fm#
If they forget about us then hurry
Em           Fm#               Em        A
How about the people who don't matter anymore?
Bm
East Timor, Timor, Timor
East Timor, Timor, Timor
East Timor


CORO bass:

e|---------------------------------------------|
B|---------------------------------------------|
G|---------------------------------------------|
D|---------------------------------------------|
A|2-2-5-2--2-5-2--5-4-2------------------------|
E|-----------------------2-2-5-2--2-5-2--2-3-5-|

e|---------------------------------------------|
B|---------------------------------------------|
G|---------------------------------------------|
D|---------------------------------------------|
A|------------------------------0--------------|
e|-0-0-0--0-0-2-2--2-2-0-0--0-2----------------|

Saludos a mi amigo Enrique Quiroga y a su esposa Alina.
Guaymas Sonora.
http://www.geocities.com/hammandy_garcia/
Tap to rate this tab
# A B C D E F G H I J K L M N O P Q R S T U V W X Y Z