Song name
# A B C D E F G H I J K L M N O P Q R S T U V W X Y Z

Shakra - B True B You tab

-----------------------------------------------------------------------------
		      B True B You - Shakra (GUITAR)
                       http://www.shakra.ch/ch/home
-----------------------------------------------------------------------------
Tabbed by: Scotto10

Tuning: Full step down with Dropped C

=============================================================================


     E  E  E  E  E  E  E  E     E  E  E  E  E  E  E  E   
D||--------------------------|--------------------------|
A||--------------------------|--------------------------|
F||--------------------------|--------------------------|
C||--------------------------|--------------------------|
G||--3--5-----6--5-----3--5--|-----6--5-----3--5--6--5--|
C||--------0--------0--------|--0--------0--------------|


  E  E  E  E  E  E  E  E     E  E  E  E  E  E  E  E   
--------------------------|--------------------------|
--------------------------|--------------------------|
--------------------------|--------------------------|
--------------------------|--------------------------|
--3--5-----6--5-----3--5--|-----6--5-----3--5--6--5--|
--------0--------0--------|--0--------0--------------|


  E  E  E  E  E  E  E  E     E  E  E  E  E  E  E  E   
--------------------------|--------------------------|
--------------------------|--------------------------|
--------------------------|--------------------------|
--------------------------|--------------------------|
--3--5-----6--5-----3--5--|-----6--5-----3--5--6--5--|
--------0--------0--------|--0--------0--------------|


  E  E  E  E  E  E  E  E     E  E  E  E  E  E  E  E   
--------------------------|--------------------------|
--------------------------|--------------------------|
--------------------------|--------------------------|
--------------------------|--------------------------|
--3--5-----6--5-----3--5--|-----6--5-----3--5--6--5--|
--------0--------0--------|--0--------0--------------|


  E  E  E  E  E  E  E  E     E  E  E  E  E  E  E  E   
--------------------------|--------------------------|
--------------------------|--------------------------|
--------------------------|--------------------------|
--------------------------|--------------------------|
--3--5-----6--5-----3--5--|-----6--5-----3--5--6--5--|
--------0--------0--------|--0--------0--------------|


  E  E  E  E  E  E  E  E     E  E  E  E  E  E  E  E   
--------------------------|--------------------------|
--------------------------|--------------------------|
--------------------------|--------------------------|
--------------------------|--------------------------|
--3--5-----6--5-----3--5--|-----6--5-----3--5--6--5--|
--------0--------0--------|--0--------0--------------|


  E  E  E  E  E  E  E  E     E  E  E  E  E  E  E  E   
--------------------------|--------------------------|
--------------------------|--------------------------|
--------------------------|--------------------------|
--------------------------|--------------------------|
--3--5-----6--5-----3--5--|-----6--5-----3--5--6--5--|
--------0--------0--------|--0--------0--------------|


  E  E  E  E  E  E  E  E     E  E  E  E  E  E  E  E   
--------------------------|--------------------------|
--------------------------|--------------------------|
--------------------------|--------------------------|
--------------------------|--------------------------|
--3--5-----6--5-----3--5--|-----6--5-----3--5--6--5--|
--------0--------0--------|--0--------0--------------|


  E   E  E  E  E  E  E  E     E  E  E  E  E  E  E  E   
---------------------------|--------------------------|
---------------------------|--------------------------|
---------------------------|--------------------------|
---------------------------|--------------------------|
--3p--0-----0-----0-----0--|-----0-----0--6--5--3--0--|
--3p--0-----0-----0-----0--|-----0-----0--6--5--3--0--|


                                            SH    SH    SH     
  E   E  E  E  E  E  E  E     E  E  E  E    E     E     E  E   
---------------------------|----------------------------------|
---------------------------|----------------------------------|
---------------------------|----------------------------------|
---------------------------|----------------------------------|
--3p--0-----0-----0-----0--|-----0-----0-------------------0--|
--3p--0-----0-----0-----0--|-----0-----0--<>6~--<>5~--<>3--0--|


  E   E  E  E  E  E  E  E     E  E  E  E  E  E  E  E   
---------------------------|--------------------------|
---------------------------|--------------------------|
---------------------------|--------------------------|
---------------------------|--------------------------|
--3p--0-----0-----0-----0--|-----0-----0--6--5--3--0--|
--3p--0-----0-----0-----0--|-----0-----0--6--5--3--0--|


                                            SH    SH    SH     
  E   E  E  E  E  E  E  E     E  E  E  E    E     E     E  E   
---------------------------|----------------------------------|
---------------------------|----------------------------------|
---------------------------|----------------------------------|
---------------------------|----------------------------------|
--3p--0-----0-----0-----0--|-----0-----0-------------------0--|
--3p--0-----0-----0-----0--|-----0-----0--<>6~--<>5~--<>3--0--|


  E   E  E  E  E  E  E  E     E  E  E  E  E  E  E  E   
---------------------------|--------------------------|
---------------------------|--------------------------|
---------------------------|--------------------------|
---------------------------|--------------------------|
--3p--0-----0-----0-----0--|-----0-----0--6--5--3--0--|
--3p--0-----0-----0-----0--|-----0-----0--6--5--3--0--|


                                            SH    SH    SH     
  E   E  E  E  E  E  E  E     E  E  E  E    E     E     E  E   
---------------------------|----------------------------------|
---------------------------|----------------------------------|
---------------------------|----------------------------------|
---------------------------|----------------------------------|
--3p--0-----0-----0-----0--|-----0-----0-------------------0--|
--3p--0-----0-----0-----0--|-----0-----0--<>6~--<>5~--<>3--0--|


  E   E  E  E  E  E  E  E     E  E  E  E  E  E  E  E   
---------------------------|--------------------------|
---------------------------|--------------------------|
---------------------------|--------------------------|
---------------------------|--------------------------|
--3p--0-----0-----0-----0--|-----0-----0--6--5--3--0--|
--3p--0-----0-----0-----0--|-----0-----0--6--5--3--0--|


                                            SH    SH    SH     
  E   E  E  E  E  E  E  E     E  E  E  E    E     E     E  E   
---------------------------|----------------------------------|
---------------------------|----------------------------------|
---------------------------|----------------------------------|
---------------------------|----------------------------------|
--3p--0-----0-----0-----0--|-----0-----0-------------------0--|
--3p--0-----0-----0-----0--|-----0-----0--<>6~--<>5~--<>3--0--|


  Q.     Q.      Q        E  Q.     Q    Q       Q.     Q.      Q     
----------------------|-----------------------|----------------------|
----------------------|-----------------------|----------------------|
----------------------|-----------------------|----------------------|
--5------7------10----|---L--5------7----7----|--5------7------10----|
--3------5-------8----|---L--3------5----5----|--3------5-------8----|
----------------------|-----------------------|----------------------|


   E   Q.     Q    Q       Q.     Q.      Q        E  Q.     Q    Q     
------------------------|----------------------|-----------------------|
------------------------|----------------------|-----------------------|
------------------------|----------------------|-----------------------|
---L--12------7----7----|--5------7------10----|---L--5------7----7----|
---L--10------5----5----|--3------5-------8----|---L--3------5----5----|
------------------------|----------------------|-----------------------|


  E  E  E  Q     E  E  E     E  Q     E  E  E  E  E     H.           Q     
--------------------------|--------------------------|--------------------|
--------------------------|--------------------------|--------------------|
--------------------------|--------------------------|---------------3----|
--------------------------|--------------------------|--0------------3----|
--------------------------|--------------------------|--0------------1----|
--6--5--3--5~----0--6--5--|--3--5~----0--6--5--3--0--|--0-----------------|


  W                   H.           Q       H        E  E  E  E   
-------------------|--------------------|-----------------------|
-------------------|--------------------|-----------------------|
--L----------------|--5-----------------|-----------------------|
--L----------------|--5------------5----|--L--------L--3--3--0--|
--L----------------|--3------------5----|--L--------L--3--3--0--|
-------------------|---------------5----|--L--------L--3--3--0--|


  H.           Q       W                   W                 
--------------------|-------------------|-------------------|
--------------------|-------------------|-------------------|
---------------3----|--L----------------|--5----------------|
--0------------3----|--L----------------|--5----------------|
--0------------1----|--L----------------|--3----------------|
--0-----------------|-------------------|-------------------|


  Q.      E   E   E   E  E     H.           Q       W                 
----------------------------|--------------------|-------------------|
----------------------------|--------------------|-------------------|
--5------10--10--12--12-----|---------------3----|--L----------------|
--5------10--10--12--12-----|--0------------3----|--L----------------|
--3-------8---8--10--10-----|--0------------1----|--L----------------|
-------------------------0--|--0-----------------|-------------------|


  H.           Q       H        E  E  E  E     H.           Q     
--------------------|-----------------------|--------------------|
--------------------|-----------------------|--------------------|
--5-----------------|-----------------------|---------------3----|
--5------------5----|--L--------L--3--3--0--|--0------------3----|
--3------------5----|--L--------L--3--3--0--|--0------------1----|
---------------5----|--L--------L--3--3--0--|--0-----------------|


  W                   W                   Q.      E   E   E   E  E   
-------------------|-------------------|----------------------------|
-------------------|-------------------|----------------------------|
--L----------------|--5----------------|--5------10--10--12--12-----|
--L----------------|--5----------------|--5------10--10--12--12-----|
--L----------------|--3----------------|--3-------8---8--10--10-----|
-------------------|-------------------|-------------------------0--|


  E  E  E  E  E  E  E  E     E  E  E  E  E  E  E  E   
--------------------------|--------------------------|
--------------------------|--------------------------|
--------------------------|--------------------------|
--------------------------|--------------------------|
--3--5-----6--5-----3--5--|-----6--5-----3--5--6--5--|
--------0--------0--------|--0--------0--------------|


  E  E  E  E  E  E  E  E     E  E  E  E  E  E  E  E    
--------------------------|--------------------------||
--------------------------|--------------------------||
--------------------------|--------------------------||
--------------------------|--------------------------||
--3--5-----6--5-----3--5--|-----6--5-----3--5--6--5--||
--------0--------0--------|--0--------0--------------||




Duration Legend
---------------
W - whole
H - half
Q - quarter
E - 8th
S - 16th
. - note dotted


Tablature Legend
----------------
L - tied note
x - dead note
g - grace note
AH - artificial harmonic
SH - semi harmonic
PH - pitch harmonic
h - hammer on
p - pull off
S - shift slide
Tap to rate this tab
 
# A B C D E F G H I J K L M N O P Q R S T U V W X Y Z