Song name
# A B C D E F G H I J K L M N O P Q R S T U V W X Y Z

Shalamar - A Night To Remember tab

Artist:	Shalamar
Album:  "Friends" [1982]
Song:   A Night To Remember

e---------------------------------------------------------------------------------------|
b---------------------------------------------------------------------------------------|
g-----------------------------------------------------------5---------------------------|
D-----------------5-5/7-5---5/7-5-5---5/7-5-5-----5-7-8-8-8---5/7-5---5/7-5-----5/7-5---|
A--5-5-8-5-5----8---------5---------5-------------------------------5-------8-5-------5-|
E---------------------------------------------------------------------------------------|

e---------------------------------------------------------------------------------------|
b---------------------------------------------------------------------------------------|
g-----------------------------------------------------------5---------------------------|
D-----------------5-5/7-5---5/7-5-5---5/7-5-5-----5-7-8-8-8---5/7-5---7-7-5-----7-------|
A--5-5-8-5-5----8---------5---------5-------------------------------8-------8-5---------|
E---------------------------------------------------------------------------------------|

1:44 & 2:02
e---------------------------------------------------------------------------------------|
b---------------------------------------------------------------------------------------|
g-----------------------------------------------------------6---------------------------|
D-----------------6-6/8-6---6/8-6-6---6/8-6-6-----6-8-9-9-9---6/8-6---6/8-6-----6/8-6---|
A--6-6---6-6----9---------6---------6-------------------------------6-------9-6-------6-|
E---------------------------------------------------------------------------------------|

Tabbed by Mad-Season
Email: h22a.vtec@gmail.com
Tap to rate this tab
 
# A B C D E F G H I J K L M N O P Q R S T U V W X Y Z