Song name
# A B C D E F G H I J K L M N O P Q R S T U V W X Y Z

Shalom Hanoch - Avahat Neurai tab

-------------------------------------------------------------------------------
                             AHAVAT NEURAI - Shalom Hanoch
-------------------------------------------------------------------------------
****************** For Ultimate Guitar reviewer ******************
Shalom Hanoch is a popular musician in Israel. His official
website is http://shalomhanoch.co.il/ (it is in Hebrew).

Shalom Hanoch in Hebrew is:
שלום הנוך
Avahat Neurai (Love of my youth) in Hebrew is:
אהבת נעורי
******************************************************************

Tabbed by: Jeremy Lavine
Tuning: Standard, with capo on 4th fret

I think the "instrumental" and "verse" are just as Shalom Hanoch plays.
For the "chorus" part, I'm sure the chords are correct, but it doesn't seem
to be exactly as Shalom Hanoch plays. It's close and sounds good, though.
Suggestions welcome in the comments!

Do the hammer-ons and pull-offs on the B/2nd string cleanly, so it continues
to sound.

Instrumental 1:  
e|--------------------------------|
B|-1-----1p0-----0h1------1-0h1p0-|
G|---2---------2-----2---2--------| 
D|-----2---------------2----------|
A|-0---------2-----0--------------|
E|--------------------------------|

Instrumental 2:
e|-------------0-----------2-|
B|-1---1---0---------1---3---|
G|---2---2---0---0-----------|
D|-----------------2---0-----|
A|-0-----------3-------------|
E|---------3-----------------|

Verse part 1:
 "hayiti yeled ..."
e|-------------0-----------|
B|-1---1---0-------1---3---|
G|---2---2---0---0---2---2-|
D|-----------------3---0---|
A|-0-----------3-----------|
E|---------3---------------|
 
Verse part 2: 
 "lo natati ..."
e|-----0---------------1-------|
B|-0-------1---1---3-------0---|
G|---0---0---2---2---2---2---1-|
D|---------3-------0-----------|
A|-----3-----------------------|
E|-3-----------------------0---|

Bridge:
e|------------------------------|
B|-1-----1p0-----0h1------1---0-|
G|---2---------2-----2----2---0-|
D|-----2---------------2--------|
A|-0---------2-----0------------|
E|--------------------------3---|

Chorus part 1:
 "mistakel eykh ..."
e|-----------------------------|    
B|---1-----1---3---1-----1---0-|    
G|-----0---0---2-----2---2---0-| 
D|-------2---0---------2-------|    
A|-3-------------0-------------|    
E|-------------------------3---|
       
Chorus part 2 (same as part 1 except the last chord): 
 "ani nishar ..."
e|-----------------------------| 
B|---1-----1---3---1-----1---0-| 
G|-----0---0---2-----2---2---2-| 
D|-------2---0---------2-----3-| 
A|-3-------------0---------2---| 
E|-----------------------------|
    
Chorus part 3:
 "zikaron she'ole ..."
e|-----------------------------------|
B|---1-----1---0---1---1---3---0---1-|
G|-----2---2---0---0---2---2---0---0-|
D|-------2-----------3---0-----------|
A|-0-------------3---------------3---|
E|-----------3---------------3-------|
   
Chorus part 4:
 "v'at she'hayit..."
e|-------------1-------|
B|-1---1---3-------0---|
G|---2---2---2---2---1-|
D|-3-------0-----------|
A|---------------------|
E|-----------------0---|

========================================

[Instrumental 1] x2
[Instrumental 2]
[Instrumental 1] x2
[Instrumental 2]

[Verse part 1]
hayiti yeled baleylot atzuv m'shotet l'vad 
[Verse part 2]
lo natati l'ish lada'at at hayit ahavat ne'uray

[Instrumental 1]

[Verse part 1]
hayiti yeled bayamim kholem m'nagen v'shar
[Verse part 2]
m'dame li she'at shoma'at et hashir harishon b'khayay

[Bridge]

[Chorus part 1]
mistakel eykh at rokedet mistovevet v'nitzmedet
[Chorus part 1]
rak ani tzofe me'hatzad
[Chorus part 2]
ani nishar v'at ozevet r'khoka lo mitkarevet
[Chorus part 3]
zikaron she'ole bi shuv pardes ratuv y'lalat hatanim
[Chorus part 4]
v'at she'hayit ahavat ne'uray

[Instrumental 1] x2
[Instrumental 2]

[Verse part 1]
v'lo hayiti itakh kimat kol kakh m'at
[Verse part 2]
v'amart li she'at nosa'at v'ulay lo ere otakh shuv

[Instrumental 1]

[Verse part 1]
hayiti yeled baleylot atzuv m'shotet l'vad 
[Verse part 2]
lo natati l'ish lada'at at hayit ahavat ne'uray

[Bridge]

(Chorus)


************************************

| /   slide up
| \   slide down
| h   hammer-on
| p   pull-off
| ~   vibrato
| +   harmonic
| x   Mute note
| b   Bend
| pb  Pre-bend
| br  Bend release
| pbr Pre-bend release
| brb Bend release bend

************************************
Tap to rate this tab
 
# A B C D E F G H I J K L M N O P Q R S T U V W X Y Z